Pink Floyd - Wish You Were Here

(/) Slide Up  (\) Slide Down  (h) Hammer On  (p) Pull Off  (b) Bend (r) Release (v) Vibrato
E|----------------7--------------
B|----------------8--------------
G|----------------9-----0--------
D|----------0--2--9--2-----2--0--
A|-----0h2--------7--------------
E|--3----------------------------



E|-----------------------------------------------------------------------
B|-----------------------------------------------------------------------
G|--------9-----------------------------12/14--12--7-9--7--7/9--7--4--4--
D|--7/12-----12--9p7--------------------12-14--12--7/9--7--7-9--7--5--5--
A|--------------------10-------------------------------------------------
E|------------------------10--7/10--10-----------------------------------



E|---------------------------------
B|----------------6p5--------------
G|-------7-----9-------7--4--7-----
D|--7/9-----9-------------------7--
A|---------------------------------
E|---------------------------------
http://www.guitartabcreator.com
Guitar Tab Creator is intended to store guitar tab created through the tool. It currently does not support in-line text editing. Any text you place in here will be lost. If you need to comment on your tab, please use the "Tab Notes" section located below.