Buddy Guy - What Kind of Woman Is This?

(/) Slide Up  (\) Slide Down  (h) Hammer On  (p) Pull Off  (b) Bend (r) Release (v) Vibrato


E|----------------------------------------
B|----------------------------------------
G|---------------------------0h1h2--0-----
D|--------0h1h2--0--------2------------2--
A|-----2------------2--0------------------
E|--0-------------------------------------



E|------------------------
B|------------------------
G|--------2h3h4--2--------
D|-----4------------4-----
A|--2------------------0--
E|------------------------
http://www.guitartabcreator.com
Guitar Tab Creator is intended to store guitar tab created through the tool. It currently does not support in-line text editing. Any text you place in here will be lost. If you need to comment on your tab, please use the "Tab Notes" section located below.