Malaguena

(/) Slide Up  (\) Slide Down  (h) Hammer On  (p) Pull Off  (b) Bend (r) Release (v) Vibrato
t: E E E E E E E E E E E E E E E E E E E E E E E E E E E E E
E|-----0-----0-----0-----0--------0-----0-----0-----0-----0-----0-----0-----0-----0-----0--
B|--------------0--------------0-----------1-----0-----------------------------------0-----
G|--------1-----------------1--------2-----------------2-----0-----------------1-----------
D|--2-----------------2--------------------------------------------3-----2-----------------
A|-----------------------------------------------------------------------------------------
E|-----------------------------------------------------------------------------------------



E|-----0-----0-----0-----0-----0-----0-----0-----0-----0--0--0--0--0-----
B|--------------0-----------1-----0-----------------------0--------------
G|--------1-----------2-----------------2-----0-----------1--------------
D|--2-----------------------------------------------3-----2--------------
A|-----------------------------------------------------------------------
E|-----------------------------------------------------------0-----------



E|--0--0-----1--0-----------------------------------------------------0--------------0--
B|--------3--------1--------1--1--1--1--1--0--3--1--0--------0--1--3-----3--1--1--3-----
G|-----------------------0-----------------------------2--2-----------------------------
D|--------------------2--------------------------------3--3--------3--------------------
A|-----------------3--------3--------3--------3-----------------------------3--3--------
E|--0--------0--------------------------------------------------------------------------



E|--1--3--1--1--0--1--3--1--0-----0-----0-----0-----0-----0-----0-----0-----0-----0--
B|-----------------------------------------0-----------------0-----------1-----0-----
G|-----------------------------------1-----------------1-----------2-----------------
D|--3--------3-----------------2-----------------2-----------------------------------
A|-----------------------------------------------------------------------------------
E|--------------------------0--------------------------------------------------------



E|-----0-----0-----0-----0-----0-----0-----0-----0-----0-----0-----0-----0-----0-----0-----0--0--
B|--------------------------------0-----------------0-----------1-----0-----------------------0--
G|--2-----0-----------------1-----------------1-----------2-----------------2-----0-----------1--
D|--------------3-----2-----------------2-----------------------------------------------3-----2--
A|-----------------------------------------------------------------------------------------------
E|-----------------------------------------------------------------------------------------------
http://www.guitartabcreator.com
Guitar Tab Creator is intended to store guitar tab created through the tool. It currently does not support in-line text editing. Any text you place in here will be lost. If you need to comment on your tab, please use the "Tab Notes" section located below.