Alive Acoustic

(/) Slide Up  (\) Slide Down  (h) Hammer On  (p) Pull Off  (b) Bend (r) Release (v) Vibrato


E|-------------12--9--------------|-----------------------------|--
B|---------10-------------10------|--------9-----12--10--9--10--|--
G|-----11-------------11------11--|-----------------------------|--
D|--------------------------------|-----------------------------|--
A|--9-----------------------------|-----7-----7-----------------|--
E|--------------------------------|--0--------------------------|--



E|--------------7/9\7--5--|----------------------------
B|-----------5------------|--------10--9--------9--10--
G|--------6---------------|-----7----------------------
D|-----7------------------|--0-------------------------
A|--0---------------------|------------------7---------
E|------------------------|---------------0------------
http://www.guitartabcreator.com
Guitar Tab Creator is intended to store guitar tab created through the tool. It currently does not support in-line text editing. Any text you place in here will be lost. If you need to comment on your tab, please use the "Tab Notes" section located below.