Wind

(/) Slide Up  (\) Slide Down  (h) Hammer On  (p) Pull Off  (b) Bend (r) Release (v) Vibrato
E|--------------------------------------------|--------------------------------------------|--
B|-----------0--------------------0-----------|--------------------------------------------|--
G|-----3--------3-----3-----3--------3-----3--|-----------2--------------------2-----------|--
D|--------4--------4-----------4--------4-----|-----0--------0-----0-----0--------0-----0--|--
A|--2--------------------2--------------------|--------4--------4-----------4--------4-----|--
E|--------------------------------------------|--5--------------------5--------------------|--



E|--------------------------------------------|--------------------------|-----------------------
B|--------------------------------------------|--------------------------|-----------------------
G|-----------0--------------------0-----------|-----------6-----------6--|-----------4-----------
D|-----0--------0-----0-----0--------0-----0--|-----7-----------7--------|-----5--------5-----5--
A|--------2--------2-----------2--------2-----|--------7-----------7-----|--------5--------5-----
E|--3--------------------3--------------------|--5-----------5-----------|--3--------------------
http://www.guitartabcreator.com
Guitar Tab Creator is intended to store guitar tab created through the tool. It currently does not support in-line text editing. Any text you place in here will be lost. If you need to comment on your tab, please use the "Tab Notes" section located below.