Our Lady of Sorrows

(/) Slide Up  (\) Slide Down  (h) Hammer On  (p) Pull Off  (b) Bend (r) Release (v) Vibrato

W = Whole Note H = Half Note Q = Quarter Note
DE = Dotted Eigth Note E = Eigth Note S = Sixteenth Note

Our Lady of Sorrows
My Chemical Romance


INTRO:
Q S S E S S E S S E Q S S E S S E S S E
E|----------------------------|----------------------------|
B|----------------------------|----------------------------|
G|----------------------------|----------------------------|
D|--6--------6------6------6--|--5--------5------5------5--|
A|--4----4-4-4--4-4-4--4-4-4--|--3----3-3-3--3-3-3--3-3-3--|
E|----------------------------|----------------------------|

Q S S E S S E S S E Q S S E S S E S S E
E|----------------------------|----------------------------|
B|----------------------------|----------------------------|
G|----------------------------|----------------------------|
D|----------------------------|----------------------------|
A|--7--------7------7------7--|--7--------7------7------7--|
E|--5----5-5-5--5-5-5--5-5-5--|--8----8-8-8--8-8-8--8-8-8--|

Q S S E S S E S S E Q S S E S S E S S E
E|----------------------------|----------------------------|
B|----------------------------|----------------------------|
G|----------------------------|----------------------------|
D|--6--------6------6------6--|--5--------5------5------5--|
A|--4----4-4-4--4-4-4--4-4-4--|--3----3-3-3--3-3-3--3-3-3--|
E|----------------------------|----------------------------|

Q S S E S S E S S E
E|----------------------------|
B|----------------------------|
G|----------------------------|
D|----------------------------|
A|--7--------7------7------7--|
E|--5----5-5-5--5-5-5--5-5-5--|

S S S S S S S S S S S S S S S S
E|-----------------------------------|
B|-----------------------------------|
G|-----------------------------------|
D|-----------------------------------|
A|------------7-7-7-7-7-7-7-7-7-7-7--|
E|--8-8-8-8-8-8-8-8-8-8-8-8-8-8-8-8--|

VERSE 1:
E S S S S E S S E S S S S E S S S S E S S E S S S S
E|--------------------------------|--------------------------------|
B|--------------------------------|--------------------------------|
G|--------------------------------|--------------------------------|
D|--6--6-6-6-6-6--6-6-6--6-6-6-6--|--5--5-5-5-5-5--5-5-5--5-5-5-5--|
A|--4--4-4-4-4-4--4-4-4--4-4-4-4--|--3--3-3-3-3-3--3-3-3--3-3-3-3--|
E|--------------------------------|--------------------------------|

E S S S S E S S E S S S S E S S S S E S S E S S S S
E|--------------------------------|--------------------------------|
B|--------------------------------|--------------------------------|
G|--------------------------------|--------------------------------|
D|--------------------------------|--------------------------------|
A|--7--7-7-7-7-7--7-7-7--7-7-7-7--|--7--7-7-7-7-7--7-7-7--7-7-7-7--|
E|--5--5-5-5-5-5--5-5-5--5-5-5-5--|--8--8-8-8-8-8--8-8-8--8-8-8-8--|

E S S S S E S S E S S S S E S S S S E S S E S S S S
E|--------------------------------|--------------------------------|
B|--------------------------------|--------------------------------|
G|--------------------------------|--------------------------------|
D|--6--6-6-6-6-6--6-6-6--6-6-6-6--|--------------------------------|
A|--4--4-4-4-4-4--4-4-4--4-4-4-4--|--7--7-7-7-7-7--7-7-7--7-7-7-7--|
E|--------------------------------|--8--8-8-8-8-8--8-8-8--8-8-8-8--|

E S S S S E S S E S S S S E S S S S E S S E S S S S
E|--------------------------------|--------------------------------|
B|--------------------------------|--------------------------------|
G|--------------------------------|--------------------------------|
D|--------------------------------|--------------------------------|
A|--7--7-7-7-7-7--7-7-7--7-7-7-7--|--7--7-7-7-7-7--7-7-7--7-7-7-7--|
E|--5--5-5-5-5-5--5-5-5--5-5-5-5--|--8--8-8-8-8-8--8-8-8--8-8-8-8--|

E S S S S E S S E S S S S E S S S S E S S E S S S S
E|--------------------------------|--------------------------------|
B|--------------------------------|--------------------------------|
G|--------------------------------|--------------------------------|
D|--6--6-6-6-6-6--6-6-6--6-6-6-6--|--------------------------------|
A|--4--4-4-4-4-4--4-4-4--4-4-4-4--|--7--7-7-7-7-7--7-7-7--7-7-7-7--|
E|--------------------------------|--8--8-8-8-8-8--8-8-8--8-8-8-8--|

Q Q Q Q Q Q Q Q
E|--------------------------|--------------------------|
B|--------------------------|--------------------------|
G|--9------8------9-----11--|--9------8------9-----11--|
D|--------------------------|--------------------------|
A|--7------6------7------9--|--7------6------7------9--|
E|--------------------------|--------------------------|

E S S S S E S S E S S S S E S S S S E S S E S S S S
E|--------------------------------|--------------------------------|
B|--------------------------------|--------------------------------|
G|--------------------------------|--------------------------------|
D|--6--6-6-6-6-6--6-6-6--6-6-6-6--|--------------------------------|
A|--4--4-4-4-4-4--4-4-4--4-4-4-4--|--7--7-7-7-7-7--7-7-7--7-7-7-7--|
E|--------------------------------|--8--8-8-8-8-8--8-8-8--8-8-8-8--|

Q Q Q Q Q Q Q Q
E|--------------------------|--------------------------|
B|--------------------------|--------------------------|
G|--9------8------9-----11--|--9------8------9---------|
D|--------------------------|--------------------------|
A|--7------6------7------9--|--7------6------7---------|
E|--------------------------|--------------------------|

CHORUS:
E E E E E E E E E E E E E E E E
E|--------------------------|--------------------------|
B|--------------------------|--------------------------|
G|--6--6--------------------|--6--6-----------------5--|
D|--6--6--6--6--7--7--4--4--|--6--6--6--6--7--7-----5--|
A|--4--4--6--6--7--7--4--4--|--4--4--6--6--7--7-----3--|
E|--4--4--4--4--5--5--2--2--|--4--4--4--4--5--5-----3--|

E E E E E E E E E E E E E E E E
E|--------------------------|--------------------------|
B|--------------------------|--------------------------|
G|--6--6--------------------|--6--6-----------------5--|
D|--6--6--6--6--7--7--4--4--|--6--6--6--6--7--7-----5--|
A|--4--4--6--6--7--7--4--4--|--4--4--6--6--7--7-----3--|
E|--4--4--4--4--5--5--2--2--|--4--4--4--4--5--5-----3--|

VERSE 2:
E S S S S E S S E S S S S E S S S S E S S E S S S S
E|--------------------------------|--------------------------------|
B|--------------------------------|--------------------------------|
G|--------------------------------|--------------------------------|
D|--6--6-6-6-6-6--6-6-6--6-6-6-6--|--------------------------------|
A|--4--4-4-4-4-4--4-4-4--4-4-4-4--|--7--7-7-7-7-7--7-7-7--7-7-7-7--|
E|--------------------------------|--8--8-8-8-8-8--8-8-8--8-8-8-8--|

E S S S S E S S E S S S S E S S S S E S S E S S S S
E|--------------------------------|--------------------------------|
B|--------------------------------|--------------------------------|
G|--------------------------------|--------------------------------|
D|--------------------------------|--------------------------------|
A|--7--7-7-7-7-7--7-7-7--7-7-7-7--|--7--7-7-7-7-7--7-7-7--7-7-7-7--|
E|--5--5-5-5-5-5--5-5-5--5-5-5-5--|--8--8-8-8-8-8--8-8-8--8-8-8-8--|

E S S S S E S S E S S S S E S S S S E S S E S S S S
E|--------------------------------|--------------------------------|
B|--------------------------------|--------------------------------|
G|--------------------------------|--------------------------------|
D|--6--6-6-6-6-6--6-6-6--6-6-6-6--|--------------------------------|
A|--4--4-4-4-4-4--4-4-4--4-4-4-4--|--7--7-7-7-7-7--7-7-7--7-7-7-7--|
E|--------------------------------|--8--8-8-8-8-8--8-8-8--8-8-8-8--|

E S S S S E S S E S S S S E S S S S E S S E S S S S
E|--------------------------------|--------------------------------|
B|--------------------------------|--------------------------------|
G|--------------------------------|--------------------------------|
D|--------------------------------|--------------------------------|
A|--7--7-7-7-7-7--7-7-7--7-7-7-7--|--7--7-7-7-7-7--7-7-7--7-7-7-7--|
E|--5--5-5-5-5-5--5-5-5--5-5-5-5--|--8--8-8-8-8-8--8-8-8--8-8-8-8--|

E S S S S E S S E S S S S E S S S S E S S E S S S S
E|--------------------------------|--------------------------------|
B|--------------------------------|--------------------------------|
G|--------------------------------|--------------------------------|
D|--6--6-6-6-6-6--6-6-6--6-6-6-6--|--------------------------------|
A|--4--4-4-4-4-4--4-4-4--4-4-4-4--|--7--7-7-7-7-7--7-7-7--7-7-7-7--|
E|--------------------------------|--8--8-8-8-8-8--8-8-8--8-8-8-8--|

Q Q Q Q Q Q Q Q
E|--------------------------|--------------------------|
B|--------------------------|--------------------------|
G|--9------8------9-----11--|--9------8------9-----11--|
D|--------------------------|--------------------------|
A|--7------6------7------9--|--7------6------7------9--|
E|--------------------------|--------------------------|

E S S S S E S S E S S S S E S S S S E S S E S S S S
E|--------------------------------|--------------------------------|
B|--------------------------------|--------------------------------|
G|--------------------------------|--------------------------------|
D|--6--6-6-6-6-6--6-6-6--6-6-6-6--|--------------------------------|
A|--4--4-4-4-4-4--4-4-4--4-4-4-4--|--7--7-7-7-7-7--7-7-7--7-7-7-7--|
E|--------------------------------|--8--8-8-8-8-8--8-8-8--8-8-8-8--|

Q Q Q Q Q Q Q Q
E|--------------------------|--------------------------|
B|--------------------------|--------------------------|
G|--9------8------9-----11--|--9------8------9---------|
D|--------------------------|--------------------------|
A|--7------6------7------9--|--7------6------7---------|
E|--------------------------|--------------------------|

CHORUS:
E E E E E E E E E E E E E E E E
E|--------------------------|--------------------------|
B|--------------------------|--------------------------|
G|--6--6--------------------|--6--6-----------------5--|
D|--6--6--6--6--7--7--4--4--|--6--6--6--6--7--7-----5--|
A|--4--4--6--6--7--7--4--4--|--4--4--6--6--7--7-----3--|
E|--4--4--4--4--5--5--2--2--|--4--4--4--4--5--5-----3--|

E E E E E E E E
E|--------------------------|
B|--------------------------|
G|--6--6--------------------|
D|--6--6--6--6--7--7--4--4--|
A|--4--4--6--6--7--7--4--4--|
E|--4--4--4--4--5--5--2--2--|

E E E E S S S S S S S S
E|-------------------------------|
B|-------------------------------|
G|--6--6-------------------------|
D|--6--6--6--6--6---6---6---6----|
A|--4--4--6--6----4---4---4---4--|
E|--4--4--4--4-------------------|

BREAKDOWN:
E S E S Q Q E E S E S Q Q E
E|-------------------------|-------------------------|
B|-------------------------|-------------------------|
G|--9--9-8--8-9----9----9--|--9--9-8--8-9----9----9--|
D|-------------------------|-------------------------|
A|-------------------------|-------------------------|
E|-------------------------|-------------------------|

E S E S Q Q E E S E S E DE DE E
E|-------------------------|-------------------------|
B|-------------------------|-------------------------|
G|--9--9-8--8-9----9----9--|--9--9-8--8-9--9--8--6---|
D|-------------------------|-------------------------|
A|-------------------------|-------------------------|
E|-------------------------|-------------------------|

E S E S Q Q E E S E S Q Q E
E|-------------------------|-------------------------|
B|-------------------------|-------------------------|
G|--9--9-8--8-9----9----9--|--9--9-8--8-9----9----9--|
D|-------------------------|-------------------------|
A|-------------------------|-------------------------|
E|-------------------------|-------------------------|

E S E S Q Q E E S E S E DE DE E
E|-------------------------|-------------------------|
B|-------------------------|-------------------------|
G|--9--9-8--8-9----9----9--|--9--9-8--8-9--9--8--6---|
D|-------------------------|-------------------------|
A|-------------------------|-------------------------|
E|-------------------------|-------------------------|

E S E S Q Q E E S E S Q Q E
E|-------------------------|-------------------------|
B|--9--9-7--7-9----9----9--|--9--9-7--7-9----9----9--|
G|--9--9-8--8-9----9----9--|--9--9-8--8-9----9----9--|
D|-------------------------|-------------------------|
A|-------------------------|-------------------------|
E|-------------------------|-------------------------|

E S E S Q Q E
E|-------------------------|
B|--9--9-7--7-9----9----9--|
G|--9--9-8--8-9----9----9--|
D|-------------------------|
A|-------------------------|
E|-------------------------|

SOLO:
S S S S S S S S S S S S S S S S
E|---------------9---------------------------|
B|-------9-10-12---12-10-9-10-9--------------|
G|--9-11------------------------11-9-11-9-8--|
D|-------------------------------------------|
A|-------------------------------------------|
E|-------------------------------------------|

BREAKDOWN (CONTINUED):
E S E S Q Q E E S E S Q Q E
E|-------------------------|-------------------------|
B|--9--9-7--7-9----9----9--|--9--9-7--7-9----9----9--|
G|--9--9-8--8-9----9----9--|--9--9-8--8-9----9----9--|
D|-------------------------|-------------------------|
A|-------------------------|-------------------------|
E|-------------------------|-------------------------|

E S E S Q Q E E S E S E Q Q
E|-------------------------|-------------------------|
B|--9--9-7--7-9----9----9--|--9--9-7--7-9------------|
G|--9--9-8--8-9----9----9--|--9--9-8--8-9------------|
D|-------------------------|-------------------------|
A|-------------------------|-------------------------|
E|-------------------------|-------------------------|

CHORUS/OUTRO:
E E E E E E E E E E E E E E E E
E|--------------------------|--------------------------|
B|--------------------------|--------------------------|
G|--6--6--------------------|--6--6-----------------5--|
D|--6--6--6--6--7--7--4--4--|--6--6--6--6--7--7-----5--|
A|--4--4--6--6--7--7--4--4--|--4--4--6--6--7--7-----3--|
E|--4--4--4--4--5--5--2--2--|--4--4--4--4--5--5-----3--|

E E E E E E E E E E E E E E E E
E|--------------------------|--------------------------|
B|--------------------------|--------------------------|
G|--6--6--------------------|--6--6--------------5--5--|
D|--6--6--6--6--7--7--4--4--|--6--6--6--6--7--7--5--5--|
A|--4--4--6--6--7--7--4--4--|--4--4--6--6--7--7--3--3--|
E|--4--4--4--4--5--5--2--2--|--4--4--4--4--5--5--3--3--|

E E E E E E E E E E E E E E E E
E|--------------------------|--------------------------|
B|--------------------------|--------------------------|
G|--6--6--------------------|--6--6--------------5--5--|
D|--6--6--6--6--7--7--4--4--|--6--6--6--6--7--7--5--5--|
A|--4--4--6--6--7--7--4--4--|--4--4--6--6--7--7--3--3--|
E|--4--4--4--4--5--5--2--2--|--4--4--4--4--5--5--3--3--|

Q Q Q Q Q Q Q Q
E|--------------------------|--------------------------|
B|--------------------------|--------------------------|
G|--6-----------------------|--6-----------------5-----|
D|--6-----6-----7-----4-----|--6-----6-----7-----5-----|
A|--4-----6-----7-----4-----|--4-----6-----7-----3-----|
E|--4-----4-----5-----2-----|--4-----4-----5-----3-----|

S S S S Q H W
E|--------------------------|--------------------------|
B|--------------------------|--------------------------|
G|--6-6-6-6-----------------|--------------------------|
D|--6-6-6-6-----------------|--------------------------|
A|--4-4-4-4-----------------|--------------------------|
E|--4-4-4-4-----------------|--------------------------|
http://www.guitartabcreator.com
Guitar Tab Creator is intended to store guitar tab created through the tool. It currently does not support in-line text editing. Any text you place in here will be lost. If you need to comment on your tab, please use the "Tab Notes" section located below.