Na Na Na (Na Na Na Na Na Na Na Na Na)

(/) Slide Up  (\) Slide Down  (h) Hammer On  (p) Pull Off  (b) Bend (r) Release (v) Vibrato

W = Whole Note DH = Dotted Half Note H = Half Note
DQ = Dotted Quarter Note Q = Quarter Note E = Eigth Note

Na Na Na (Na Na Na Na Na Na Na Na Na)
My Chemical Romance

Intro:
Q E E Q E E Q E E E E E E
E|--------------------|-----------------------|
B|--------------------|-----------------------|
G|--------------------|--------------4--------|
D|--6--6--4--6--6--4--|--6--6--4--6-----6--4--|
A|--------------------|-----------------------|
E|--------------------|-----------------------|

Q E E Q E E Q E E E E E E
E|--------------------|-----------------------|
B|--------------------|-----------------------|
G|--------------------|-----------------------|
D|--------------------|--------------4--------|
A|--6--6--4--6--6--4--|--6--6--4--6-----6--5--|
E|--------------------|-----------------------|

Q E E Q E E Q E E Q E E
E|--------------------|-----------------------|
B|--------------------|-----------------------|
G|--------------------|-----------------------|
D|--------------------|--4--4-----4--4--5-----|
A|--4--4-----4--4-----|--------6--------------|
E|--------7--------7--|-----------------------|

Q E E Q Q E E E E E E E E
E|--------------------|--------------------------|
B|--------------------|--------------------------|
G|--------------------|-----8--8--8--8--8--8--8--|
D|--6--6--4--6--4-----|-----8--8--8--8--8--8--8--|
A|--------------------|-----6--6--6--6--6--6--6--|
E|--------------------|--------------------------|

Q E E Q E E Q E E E E E E
E|--------------------|-----------------------|
B|--------------------|-----------------------|
G|--------------------|--------------4--------|
D|--6--6--4--6--6--4--|--6--6--4--6-----6--4--|
A|--------------------|-----------------------|
E|--------------------|-----------------------|

Q E E Q E E Q E E E E E E
E|--------------------|-----------------------|
B|--------------------|-----------------------|
G|--------------------|-----------------------|
D|--------------------|--------------4--------|
A|--6--6--4--6--6--4--|--6--6--4--6-----6--5--|
E|--------------------|-----------------------|

Q E E Q E E Q E E Q E E
E|--------------------|-----------------------|
B|--------------------|-----------------------|
G|--------------------|-----------------------|
D|--------------------|--4--4-----4--4--5-----|
A|--4--4-----4--4-----|--------6--------------|
E|--------7--------7--|-----------------------|

Q E E Q Q E E E E E E E E
E|--------------------|-------------------|
B|--------------------|-------------------|
G|--------------------|----8-8-8-8-8-8-8--|
D|--6--6--4--6--4-----|----8-8-8-8-8-8-8--|
A|--------------------|----6-6-6-6-6-6-6--|
E|--------------------|-------------------|

Verse 1:
E E E E E E E E E E E E E E E E
E|---------------------------|---------------------------|
B|---------------------------|---------------------------|
G|---------------------------|---------------------------|
D|--13-13-13-13-13-13-13-13--|--13-13-13-13-13-13-13-13--|
A|--11-11-11-11-11-11-11-11--|--11-11-11-11-11-11-11-11--|
E|---------------------------|---------------------------|

E E E E E E E E E E E E E E E E
E|---------------------------|---------------------------|
B|---------------------------|---------------------------|
G|---------------------------|---------------------------|
D|--8--8--8--8--8--8--8--8---|--8--8--8--8--8--8--8--8---|
A|--6--6--6--6--6--6--6--6---|--6--6--6--6--6--6--6--6---|
E|---------------------------|---------------------------|

E E E E E E E E E E E E E E E E
E|---------------------------|---------------------------|
B|---------------------------|---------------------------|
G|---------------------------|---------------------------|
D|--6--6--6--6--6--6--6--6---|--11-11-11-11-11-11-11-11--|
A|--4--4--4--4--4--4--4--4---|--9--9--9--9--9--9--9--9---|
E|---------------------------|---------------------------|

Qh Qh Qh Qh Q E E E E E E
E|---------------------------|---------------------------|
B|---------------------------|---------------------------|
G|---------------------------|---------------------------|
D|--13----13----13----13-----|---------------------------|
A|--11----11----11----11-----|--------13-13-13-13-13-13--|
E|---------------------------|--------11-11-11-11-11-11--|


E E E E E E E E E E E E E E E E
E|---------------------------|---------------------------|
B|---------------------------|---------------------------|
G|--13-13-13-13-13-13-13-13--|--13-13-13-13-13-13-13-13--|
D|--13-13-13-13-13-13-13-13--|--13-13-13-13-13-13-13-13--|
A|--11-11-11-11-11-11-11-11--|--11-11-11-11-11-11-11-11--|
E|---------------------------|---------------------------|

E E E E E E E E E E E E E E E E
E|---------------------------|---------------------------|
B|---------------------------|---------------------------|
G|--8--8--8--8--8--8--8--8---|--8--8--8--8--8--8--8--8---|
D|--8--8--8--8--8--8--8--8---|--8--8--8--8--8--8--8--8---|
A|--6--6--6--6--6--6--6--6---|--6--6--6--6--6--6--6--6---|
E|---------------------------|---------------------------|

E E E E E E E E E E E E E E E E
E|---------------------------|---------------------------|
B|---------------------------|---------------------------|
G|--6--6--6--6--6--6--6--6---|--11-11-11-11-11-11-11-11--|
D|--6--6--6--6--6--6--6--6---|--11-11-11-11-11-11-11-11--|
A|--4--4--4--4--4--4--4--4---|--9--9--9--9--9--9--9--9---|
E|---------------------------|---------------------------|

Qh Qh Qh Qh Q E E E E E E
E|---------------------------|---------------------------|
B|---------------------------|---------------------------|
G|---------------------------|---------------------------|
D|--13----13----13----13-----|---------------------------|
A|--11----11----11----11-----|--------11-11-11-11-11-11--|
E|---------------------------|--------9--9--9--9--9--9---|

Chorus:
E E E E E E E E E E E E E E E E
E|---------------------------|---------------------------|
B|---------------------------|---------------------------|
G|--9--9--9--9--9--9--9--9---|--9--9--9--9--9--9--9--9---|
D|--9--9--9--9--9--9--9--9---|--9--9--9--9--9--9--9--9---|
A|--7--7--7--7--7--7--7--7---|--7--7--7--7--7--7--7--7---|
E|---------------------------|---------------------------|

E E E E E E E E E E E E E E E E
E|---------------------------|---------------------------|
B|---------------------------|---------------------------|
G|--11-11-11-11-11-11-11-11--|--11-11-11-11-11-11-11-11--|
D|--11-11-11-11-11-11-11-11--|--11-11-11-11-11-11-11-11--|
A|--9--9--9--9--9--9--9--9---|--9--9--9--9--9--9--9--9---|
E|---------------------------|---------------------------|

E E E E E E E E E E E E E E E E
E|---------------------------|---------------------------|
B|---------------------------|---------------------------|
G|--13-13-13-13-13-13-13-13--|--13-13-13-13-13-13-13-13--|
D|--13-13-13-13-13-13-13-13--|--13-13-13-13-13-13-13-13--|
A|--11-11-11-11-11-11-11-11--|--11-11-11-11-11-11-11-11--|
E|---------------------------|---------------------------|

E E E E E E E E E E E E E E E E
E|---------------------------|---------------------------|
B|---------------------------|---------------------------|
G|--9--9--9--9--9--9--9--9---|--12-12-12-12-12-12-12-12--|
D|--9--9--9--9--9--9--9--9---|--11-11-11-11-11-11-11-11--|
A|--7--7--7--7--7--7--7--7---|--10-10-10-10-10-10-10-10--|
E|---------------------------|---------------------------|

E E E E E E E E E E E E E E E E
E|---------------------------|---------------------------|
B|---------------------------|---------------------------|
G|--9--9--9--9--9--9--9--9---|--9--9--9--9--9--9--9--9---|
D|--9--9--9--9--9--9--9--9---|--9--9--9--9--9--9--9--9---|
A|--7--7--7--7--7--7--7--7---|--7--7--7--7--7--7--7--7---|
E|---------------------------|---------------------------|

E E E E E E E E E E E E E E E E
E|---------------------------|---------------------------|
B|---------------------------|---------------------------|
G|--11-11-11-11-11-11-11-11--|--11-11-11-11-11-11-11-11--|
D|--11-11-11-11-11-11-11-11--|--11-11-11-11-11-11-11-11--|
A|--9--9--9--9--9--9--9--9---|--9--9--9--9--9--9--9--9---|
E|---------------------------|---------------------------|

E E E E E E E E E E E E E E E E
E|---------------------------|---------------------------|
B|---------------------------|---------------------------|
G|--13-13-13-13-13-13-13-13--|--13-13-13-13-13-13-13-13--|
D|--13-13-13-13-13-13-13-13--|--13-13-13-13-13-13-13-13--|
A|--11-11-11-11-11-11-11-11--|--11-11-11-11-11-11-11-11--|
E|---------------------------|---------------------------|

E E E E E E E E E E E E E E E E
E|---------------------------|---------------------------|
B|---------------------------|---------------------------|
G|--9--9--9--9--9--9--9--9---|--12-12-12-12-12-12-12-12--|
D|--9--9--9--9--9--9--9--9---|--11-11-11-11-11-11-11-11--|
A|--7--7--7--7--7--7--7--7---|--10-10-10-10-10-10-10-10--|
E|---------------------------|---------------------------|

Bridge:
Q E E Q E E Q E E E E E E
E|---------------------------|---------------------------|
B|---------------------------|---------------------------|
G|---------------------------|--------11-11-9--11-11-----|
D|--11----11-9--11----11-9---|--11----11-11-9--11-11-----|
A|--11----11-9--11----11-9---|--11-----------------------|
E|---------------------------|---------------------------|

Q E E Q E E Q Q Q Q
E|---------------------------|---------------------------|
B|---------------------------|---------------------------|
G|---------------------------|---------------------------|
D|--11----11-9--11----11-9---|--11-----------------------|
A|--11----11-9--11----11-9---|---------------------------|
E|---------------------------|---------------------------|

Verse 2:
Q Q Q E E Q Q Q E E
E|---------------------------|---------------------------|
B|---------------------------|---------------------------|
G|---------------------------|---------------------------|
D|--13----13----------13-13--|--13----13----------13-13--|
A|--11----11----------11-11--|--11----11----------11-11--|
E|---------------------------|---------------------------|

Q Q Q E E Q Q E E E E
E|---------------------------|---------------------------|
B|---------------------------|---------------------------|
G|---------------------------|---------------------------|
D|--8-----8-----------8--8---|--8-----8-----8--8--8--8---|
A|--6-----6-----------6--6---|--6-----6-----6--6--6--6---|
E|---------------------------|---------------------------|

Q Q Q Q Q Q Q Q
E|---------------------------|---------------------------|
B|---------------------------|---------------------------|
G|---------------------------|---------------------------|
D|--6-----6-----6-----6------|--11----11----11----11-----|
A|--4-----4-----4-----4------|--9-----9-----9-----9------|
E|---------------------------|---------------------------|

Qh Qh Qh Qh Q E E E E E E
E|---------------------------|---------------------------|
B|---------------------------|---------------------------|
G|---------------------------|---------------------------|
D|--13----13----13----13-----|---------------------------|
A|--11----11----11----11-----|--------9--9--9--9--9--9---|
E|---------------------------|--------7--7--7--7--7--7---|

Chorus:
E E E E E E E E E E E E E E E E
E|---------------------------|---------------------------|
B|---------------------------|---------------------------|
G|--9--9--9--9--9--9--9--9---|--9--9--9--9--9--9--9--9---|
D|--9--9--9--9--9--9--9--9---|--9--9--9--9--9--9--9--9---|
A|--7--7--7--7--7--7--7--7---|--7--7--7--7--7--7--7--7---|
E|---------------------------|---------------------------|

E E E E E E E E E E E E E E E E
E|---------------------------|---------------------------|
B|---------------------------|---------------------------|
G|--11-11-11-11-11-11-11-11--|--11-11-11-11-11-11-11-11--|
D|--11-11-11-11-11-11-11-11--|--11-11-11-11-11-11-11-11--|
A|--9--9--9--9--9--9--9--9---|--9--9--9--9--9--9--9--9---|
E|---------------------------|---------------------------|

E E E E E E E E E E E E E E E E
E|---------------------------|---------------------------|
B|---------------------------|---------------------------|
G|--13-13-13-13-13-13-13-13--|--13-13-13-13-13-13-13-13--|
D|--13-13-13-13-13-13-13-13--|--13-13-13-13-13-13-13-13--|
A|--11-11-11-11-11-11-11-11--|--11-11-11-11-11-11-11-11--|
E|---------------------------|---------------------------|

E E E E E E E E E E E E E E E E
E|---------------------------|---------------------------|
B|---------------------------|---------------------------|
G|--9--9--9--9--9--9--9--9---|--12-12-12-12-12-12-12-12--|
D|--9--9--9--9--9--9--9--9---|--11-11-11-11-11-11-11-11--|
A|--7--7--7--7--7--7--7--7---|--10-10-10-10-10-10-10-10--|
E|---------------------------|---------------------------|

E E E E E E E E E E E E E E E E
E|---------------------------|---------------------------|
B|---------------------------|---------------------------|
G|--9--9--9--9--9--9--9--9---|--9--9--9--9--9--9--9--9---|
D|--9--9--9--9--9--9--9--9---|--9--9--9--9--9--9--9--9---|
A|--7--7--7--7--7--7--7--7---|--7--7--7--7--7--7--7--7---|
E|---------------------------|---------------------------|

E E E E E E E E E E E E E E E E
E|---------------------------|---------------------------|
B|---------------------------|---------------------------|
G|--11-11-11-11-11-11-11-11--|--11-11-11-11-11-11-11-11--|
D|--11-11-11-11-11-11-11-11--|--11-11-11-11-11-11-11-11--|
A|--9--9--9--9--9--9--9--9---|--9--9--9--9--9--9--9--9---|
E|---------------------------|---------------------------|

E E E E E E E E E E E E E E E E
E|---------------------------|---------------------------|
B|---------------------------|---------------------------|
G|--13-13-13-13-13-13-13-13--|--13-13-13-13-13-13-13-13--|
D|--13-13-13-13-13-13-13-13--|--13-13-13-13-13-13-13-13--|
A|--11-11-11-11-11-11-11-11--|--11-11-11-11-11-11-11-11--|
E|---------------------------|---------------------------|

E E E E E E E E E E E E E E E E
E|---------------------------|---------------------------|
B|---------------------------|---------------------------|
G|--9--9--9--9--9--9--9--9---|--12-12-12-12-12-12-12-12--|
D|--9--9--9--9--9--9--9--9---|--11-11-11-11-11-11-11-11--|
A|--7--7--7--7--7--7--7--7---|--10-10-10-10-10-10-10-10--|
E|---------------------------|---------------------------|

Breakdown:
Wv Wv
E|---------------------------|---------------------------|
B|---------------------------|---------------------------|
G|---------------------------|---------------------------|
D|--6------------------------|--5------------------------|
A|---------------------------|---------------------------|
E|---------------------------|---------------------------|

Wv Hv Qv Qv
E|---------------------------|---------------------------|
B|---------------------------|---------------------------|
G|---------------------------|---------------------------|
D|--4------------------------|--3------------------------|
A|---------------------------|--------------4-----6------|
E|---------------------------|---------------------------|

Hv Hv Hv Hv
E|---------------------------|---------------------------|
B|---------------------------|---------------------------|
G|---------------------------|---------------------------|
D|--------------6------------|---------------------------|
A|--7------------------------|--7-----------6------------|
E|---------------------------|---------------------------|

Wv Wv
E|---------------------------|---------------------------|
B|---------------------------|---------------------------|
G|---------------------------|---------------------------|
D|--6------------------------|---------------------------|
A|---------------------------|---------------------------|
E|---------------------------|---------------------------|

Wv Wv
E|---------------------------|---------------------------|
B|---------------------------|---------------------------|
G|---------------------------|---------------------------|
D|--6------------------------|--5------------------------|
A|---------------------------|---------------------------|
E|---------------------------|---------------------------|

Wv Hv Qv Qv
E|---------------------------|---------------------------|
B|---------------------------|---------------------------|
G|---------------------------|---------------------------|
D|--4------------------------|--3------------------------|
A|---------------------------|--------------4-----6------|
E|---------------------------|---------------------------|

Wv Wv
E|---------------------------|---------------------------|
B|---------------------------|---------------------------|
G|---------------------------|---------------------------|
D|---------------------------|---------------------------|
A|--7------------------------|--6------------------------|
E|---------------------------|---------------------------|

Wv W
E|---------------------------|---------------------------|
B|---------------------------|---------------------------|
G|---------------------------|---------------------------|
D|--6------------------------|---------------------------|
A|---------------------------|---------------------------|
E|---------------------------|---------------------------|

E E E E E E E E E E E E E E E E E E E E E E E E
E|--16-11-7--16-11-7--16-11-7--16-11-7--|--15-10-6--15-10-6--15-10-6--15-10-6--|
B|--------------------------------------|--------------------------------------|
G|--------------------------------------|--------------------------------------|
D|--------------------------------------|--------------------------------------|
A|--------------------------------------|--------------------------------------|
E|--------------------------------------|--------------------------------------|

E E E E E E E E E E E E E E E E E E E E E E E E
E|--14-10-6--14-10-6--14-10-6--14-10-6--|--13-9--5--13-9--5--13-9--5--13-9--5--|
B|--------------------------------------|--------------------------------------|
G|--------------------------------------|--------------------------------------|
D|--------------------------------------|--------------------------------------|
A|--------------------------------------|--------------------------------------|
E|--------------------------------------|--------------------------------------|

E E E E E E E E E E E E E E E E E E E E E E E E
E|--12-7--4--12-7--4--12-7--4--12-7--4--|--14-9--6--14-9--6--14-9--6--14-9--6--|
B|--------------------------------------|--------------------------------------|
G|--------------------------------------|--------------------------------------|
D|--------------------------------------|--------------------------------------|
A|--------------------------------------|--------------------------------------|
E|--------------------------------------|--------------------------------------|

W W
E|--16----------------------------------|--------------------------------------|
B|--------------------------------------|--------------------------------------|
G|--------------------------------------|--------------------------------------|
D|--------------------------------------|--------------------------------------|
A|--------------------------------------|--------------------------------------|
E|--------------------------------------|--------------------------------------|

E E E E E E E E E E E E E E E E
E|---------------------------|---------------------------|
B|---------------------------|---------------------------|
G|--13-13-13-13-13-13-13-13--|--13-13-13-13-13-13-13-13--|
D|--13-13-13-13-13-13-13-13--|--13-13-13-13-13-13-13-13--|
A|--11-11-11-11-11-11-11-11--|--11-11-11-11-11-11-11-11--|
E|---------------------------|---------------------------|

Solo:
Q E E Q Q E E E E E E E E
E|-------------------------|----------------------------|
B|-------------------------|----------------------------|
G|--8----8-----8----8------|-----8--8-----8--------8----|
D|----------11-------------|-----------11----11-11------|
A|-------------------------|----------------------------|
E|-------------------------|----------------------------|

Q E E Q Q E E E E E E E E
E|-------------------------|----------------------------|
B|-------------------------|----------------------------|
G|-------------------------|-----------------11-11-12---|
D|--11---11-9--11---11-----|-----11-11-9--11------------|
A|-------------------------|----------------------------|
E|-------------------------|----------------------------|

Q E E Q Q E E E E E E E E
E|-------------------------|----------------------------|
B|-------------------------|----------------------------|
G|--13---13-11-13---13-----|-----13-13-15-16-15-13-11---|
D|-------------------------|----------------------------|
A|-------------------------|----------------------------|
E|-------------------------|----------------------------|

H DQ E E DQ H
E|-------------------------|----------------------------|
B|--9----------11-----12---|-----16-------14------------|
G|--11---------13-----14---|-----18-------16------------|
D|-------------------------|----------------------------|
A|-------------------------|----------------------------|
E|-------------------------|----------------------------|

Interlude:
W DH E E
E|-------------------------|----------------------------|
B|-------------------------|----------------------------|
G|-------------------------|-----------------------9/---|
D|-------------------------|-----------------------9/---|
A|-------------------------|-----------------------7/---|
E|-------------------------|----------------------------|

Outro:
E E E E E E E E E E E E E E E E
E|---------------------------|---------------------------|
B|---------------------------|---------------------------|
G|--9--9--9--9--9--9--9--9---|--9--9--9--9--9--9--9--9---|
D|--9--9--9--9--9--9--9--9---|--9--9--9--9--9--9--9--9---|
A|--7--7--7--7--7--7--7--7---|--7--7--7--7--7--7--7--7---|
E|---------------------------|---------------------------|

E E E E E E E E E E E E E E E E
E|---------------------------|---------------------------|
B|---------------------------|---------------------------|
G|--11-11-11-11-11-11-11-11--|--11-11-11-11-11-11-11-11--|
D|--11-11-11-11-11-11-11-11--|--11-11-11-11-11-11-11-11--|
A|--9--9--9--9--9--9--9--9---|--9--9--9--9--9--9--9--9---|
E|---------------------------|---------------------------|

E E E E E E E E E E E E E E E E
E|---------------------------|---------------------------|
B|---------------------------|---------------------------|
G|--13-13-13-13-13-13-13-13--|--13-13-13-13-13-13-13-13--|
D|--13-13-13-13-13-13-13-13--|--13-13-13-13-13-13-13-13--|
A|--11-11-11-11-11-11-11-11--|--11-11-11-11-11-11-11-11--|
E|---------------------------|---------------------------|

E E E E E E E E E E E E E E E E
E|---------------------------|---------------------------|
B|---------------------------|---------------------------|
G|--9--9--9--9--9--9--9--9---|--12-12-12-12-12-12-12-12--|
D|--9--9--9--9--9--9--9--9---|--11-11-11-11-11-11-11-11--|
A|--7--7--7--7--7--7--7--7---|--10-10-10-10-10-10-10-10--|
E|---------------------------|---------------------------|

Q Q Q Q Q Q Q Q
E|---------------------------|---------------------------|
B|---------------------------|---------------------------|
G|--9-----9-----9-----9------|--9-----9-----9-----9------|
D|--9-----9-----9-----9------|--9-----9-----9-----9------|
A|--7-----7-----7-----7------|--7-----7-----7-----7------|
E|---------------------------|---------------------------|

Q Q Q Q Q Q Q Q
E|---------------------------|---------------------------|
B|---------------------------|---------------------------|
G|--11----11----11----11-----|--11----11----11----11-----|
D|--11----11----11----11-----|--11----11----11----11-----|
A|--9-----9-----9-----9------|--9-----9-----9-----9------|
E|---------------------------|---------------------------|

Q Q Q Q Q Q Q Q
E|---------------------------|---------------------------|
B|---------------------------|---------------------------|
G|--13----13----13----13-----|--13----13----13----13-----|
D|--13----13----13----13-----|--13----13----13----13-----|
A|--11----11----11----11-----|--11----11----11----11-----|
E|---------------------------|---------------------------|

W W
E|---------------------------|---------------------------|
B|---------------------------|--12-----------------------|
G|--9------------------------|--12-----------------------|
D|--9------------------------|--11-----------------------|
A|--7------------------------|--10-----------------------|
E|---------------------------|---------------------------|

W W
E|---------------------------|---------------------------|
B|---------------------------|--12-----------------------|
G|--9------------------------|--12-----------------------|
D|--9------------------------|--11-----------------------|
A|--7------------------------|--10-----------------------|
E|---------------------------|---------------------------|


W W
E|---------------------------|---------------------------|
B|---------------------------|--12-----------------------|
G|--9------------------------|--12-----------------------|
D|--9------------------------|--11-----------------------|
A|--7------------------------|--10-----------------------|
E|---------------------------|---------------------------|

W W
E|---------------------------|---------------------------|
B|---------------------------|---------------------------|
G|--4------------------------|---------------------------|
D|--4------------------------|---------------------------|
A|--2------------------------|---------------------------|
E|---------------------------|---------------------------|

W W
E|---------------------------|---------------------------|
B|---------------------------|---------------------------|
G|---------------------------|---------------------------|
D|---------------------------|---------------------------|
A|---------------------------|---------------------------|
E|---------------------------|---------------------------|

W W
E|---------------------------|---------------------------|
B|---------------------------|---------------------------|
G|---------------------------|---------------------------|
D|---------------------------|---------------------------|
A|---------------------------|---------------------------|
E|---------------------------|---------------------------|

http://www.guitartabcreator.com
Guitar Tab Creator is intended to store guitar tab created through the tool. It currently does not support in-line text editing. Any text you place in here will be lost. If you need to comment on your tab, please use the "Tab Notes" section located below.