Helena

(/) Slide Up  (\) Slide Down  (h) Hammer On  (p) Pull Off  (b) Bend (r) Release (v) Vibrato

Helena
My Chemical Romance

INTRO:
S S S S S S S S S S S S S S S S
E|---------------------------------------------------|
B|---------------------------------------------------|
G|---------------------------------------------------|
D|--14-14-14-14-14-14-14-14-14-14-14-14-14-14-14-14--|
A|---------------------------------------------------|
E|---------------------------------------------------|

S S S S S S S S S S S S S S S S
E|---------------------------------------------------|
B|---------------------------------------------------|
G|---------------------------------------------------|
D|--11-11-11-11-11-11-11-11-11-11-11-11-11-11-11-11--|
A|---------------------------------------------------|
E|---------------------------------------------------|

S S S S S S S S S S S S S S S S
E|---------------------------------------------------|
B|---------------------------------------------------|
G|---------------------------------------------------|
D|--13-13-13-13-13-13-13-13-13-13-13-13-13-13-13-13--|
A|---------------------------------------------------|
E|---------------------------------------------------|

S S S S S S S S S S S S S S S S
E|---------------------------------------------------|
B|---------------------------------------------------|
G|---------------------------------------------------|
D|--9--9--9--9--9--9--9--9--11-11-11-11-13-13-13-13--|
A|---------------------------------------------------|
E|---------------------------------------------------|

S S S S S S S S S S S S S S S S
E|---------------------------------------------------|
B|---------------------------------------------------|
G|---------------------------------------------------|
D|--14-14-14-14-14-14-14-14-14-14-14-14-14-14-14-14--|
A|---------------------------------------------------|
E|---------------------------------------------------|

S S S S S S S S S S S S S S S S
E|---------------------------------------------------|
B|---------------------------------------------------|
G|---------------------------------------------------|
D|--11-11-11-11-11-11-11-11-11-11-11-11-11-11-11-11--|
A|---------------------------------------------------|
E|---------------------------------------------------|

S S S S S S S S S S S S S S S S
E|---------------------------------------------------|
B|---------------------------------------------------|
G|---------------------------------------------------|
D|--9--9--9--9--9--9--9--9--11-11-11-11-11-11-11-11--|
A|---------------------------------------------------|
E|---------------------------------------------------|

S S S S S S S S S S S S S S S S
E|---------------------------------------------------|
B|---------------------------------------------------|
G|---------------------------------------------------|
D|--13-13-13-13-13-13-13-13-13-13-14-14-14-14-14-14--|
A|--------------------------------X--X--X--X--X--X---|
E|--------------------------------12-12-12-12-12-12--|

VERSE 1:
E E S S S S E E S S S S
E|---------------------------------------------------|
B|---------------------------------------------------|
G|--6-----6-----6--6--6--6--6-----6-----6--6--6--6---|
D|--6-----6-----6--6--6--6--6-----6-----6--6--6--6---|
A|--4-----4-----4--4--4--4--4-----4-----4--4--4--4---|
E|---------------------------------------------------|

E E S S S S E E S S S S
E|---------------------------------------------------|
B|---------------------------------------------------|
G|--6-----6-----6--6--6--6--6-----6-----6--6--6--6---|
D|--6-----6-----6--6--6--6--6-----6-----6--6--6--6---|
A|--4-----4-----4--4--4--4--4-----4-----4--4--4--4---|
E|---------------------------------------------------|

E E S S S S E E S S S S
E|---------------------------------------------------|
B|---------------------------------------------------|
G|---------------------------------------------------|
D|--9-----9-----9--9--9--9--9-----9-----9--9--9--9---|
A|--7-----7-----7--7--7--7--7-----7-----7--7--7--7---|
E|--0-----0-----0--0--0--0--0-----0-----0--0--0--0---|

E E S S S S E E S S S S
E|---------------------------------------------------|
B|---------------------------------------------------|
G|---------------------------------------------------|
D|--9-----9-----9--9--9--9--6-----6-----6--6--6--6---|
A|--7-----7-----7--7--7--7--6-----6-----6--6--6--6---|
E|--7-----7-----7--7--7--7--4-----4-----4--4--4--4---|

E E S S S S E E S S S S
E|---------------------------------------------------|
B|---------------------------------------------------|
G|---------------------------------------------------|
D|--7-----7-----7--7--7--7--7-----7-----6--6--6--6---|
A|--7-----7-----7--7--7--7--7-----7-----6--6--6--6---|
E|--5-----5-----5--5--5--5--5-----5-----4--4--4--4---|

E E S S S S S S S S S S S S
E|---------------------------------------------------|
B|---------------------------------------------------|
G|--------------------------6--6--6--6--6--6--6--6---|
D|--7-----7-----7--7--7--7--7--7--7--7--7--7--7--7---|
A|--7-----7-----7--7--7--7--7--7--7--7--7--7--7--7---|
E|--5-----5-----5--5--5--5--5--5--5--5--5--5--5--5---|

E E S S S S E E S S S S
E|---------------------------------------------------|
B|---------------------------------------------------|
G|---------------------------------------------------|
D|--11----11----11-11-11-11-11----11----11-11-11-11--|
A|--11----11----11-11-11-11-11----11----11-11-11-11--|
E|--9-----9-----9--9--9--9--9-----9-----9--9--9--9---|

E E S S S S E E S S S S
E|---------------------------------------------------|
B|---------------------------------------------------|
G|---------------------------------------------------|
D|--9-----9-----9--9--9--9--9-----9-----9--9--9--9---|
A|--9-----9-----9--9--9--9--9-----9-----9--9--9--9---|
E|--7-----7-----7--7--7--7--7-----7-----7--7--7--7---|

E S S S S S S E S S S S S S
E|---------------------------------------------------|
B|---------------------------------------------------|
G|--9-----9--9--9--9--9--9--11----11-11-11-11-11-11--|
D|--X-----X--X--X--X--X--X--X-----X--X--X--X--X--X---|
A|--7-----7--7--7--7--7--7--9-----9--9--9--9--9--9---|
E|---------------------------------------------------|

E S S S S S S E S S S S S S
E|---------------------------------------------------|
B|---------------------------------------------------|
G|--9-----9--9--9--9--9--9--11----11-11-11-11-11-11--|
D|--X-----X--X--X--X--X--X--X-----X--X--X--X--X--X---|
A|--7-----7--7--7--7--7--7--9-----9--9--9--9--9--9---|
E|---------------------------------------------------|

E S S S S S S E S S S S S S
E|---------------------------------------------------|
B|---------------------------------------------------|
G|--9-----9--9--9--9--9--9--11----11-11-11-11-11-11--|
D|--X-----X--X--X--X--X--X--X-----X--X--X--X--X--X---|
A|--7-----7--7--7--7--7--7--9-----9--9--9--9--9--9---|
E|---------------------------------------------------|

S S S S S S S S S S S S E E
E|---------------------------------------------------|
B|---------------------------------------------------|
G|--9--9--9-----8--8--8-----9--9--9-----9-----9------|
D|--X--X--X-----X--X--X-----X--X--X-----X-----X------|
A|--7--7--7-----6--6--6-----7--7--7-----7-----7------|
E|---------------------------------------------------|


E|--
B|--
G|--
D|--
A|--
E|--


E|--
B|--
G|--
D|--
A|--
E|--
http://www.guitartabcreator.com
Guitar Tab Creator is intended to store guitar tab created through the tool. It currently does not support in-line text editing. Any text you place in here will be lost. If you need to comment on your tab, please use the "Tab Notes" section located below.