Headfirst For Halos

(/) Slide Up  (\) Slide Down  (h) Hammer On  (p) Pull Off  (b) Bend (r) Release (v) Vibrato

Headfirst For Halos
My Chemical Romance

INTRO:
E E E E E E E E E E E E E E E E E E E E E E E E
E|--5/2-3-5/2-3-5/2-3-5/2-3--|--5/2-3-5/2-3-5/2-3-5/2-3--|
B|---------------------------|---------------------------|
G|---------------------------|---------------------------|
D|---------------------------|---------------------------|
A|---------------------------|---------------------------|
E|---------------------------|---------------------------|

E E E E E E E E E E E E E E E E E E E E E E E E
E|---------------------------|---------------------------|
B|--8/7-5-8/7-5-8/7-5-8/7-5--|--8/7-5-8/7-5-8/7-5-8/7-5--|
G|---------------------------|---------------------------|
D|---------------------------|---------------------------|
A|---------------------------|---------------------------|
E|---------------------------|---------------------------|

E E E E E E E E E E E E E E E E E E E E E E E E
E|---------------------------|---------------------------|
B|--6/5-3-6/5-3-6/5-3-6/5-3--|--6/5-3-6/5-3-6/5-3-6/5-3--|
G|---------------------------|---------------------------|
D|---------------------------|---------------------------|
A|---------------------------|---------------------------|
E|---------------------------|---------------------------|

E E E E E E E E E E E E E E E E E E E E E E E E
E|---------------------------|---------------------------|
B|--8/7-5-8/7-5-8/7-5-8/7-5--|--8/7-5-8/7-5-8/7-5-8/7-5--|
G|---------------------------|---------------------------|
D|---------------------------|---------------------------|
A|---------------------------|---------------------------|
E|---------------------------|---------------------------|

E E E E E E E E E E E E E E E E E E E E E E E E
E|--5/2-3-5/2-3-5/2-3-5/2-3--|--5/2-3-5/2-3-5/2-3-5/2-3--|
B|---------------------------|---------------------------|
G|---------------------------|---------------------------|
D|---------------------------|---------------------------|
A|---------------------------|---------------------------|
E|---------------------------|---------------------------|

E E E E E E E E E E E E E E E E E E E E E E E E
E|---------------------------|---------------------------|
B|--8/7-5-8/7-5-8/7-5-8/7-5--|--8/7-5-8/7-5-8/7-5-8/7-5--|
G|---------------------------|---------------------------|
D|---------------------------|---------------------------|
A|---------------------------|---------------------------|
E|---------------------------|---------------------------|

E E E E E E E E E E E E E E E E E E E E E E E E
E|---------------------------|---------------------------|
B|--6/5-3-6/5-3-6/5-3-6/5-3--|--6/5-3-6/5-3-6/5-3-6/5-3--|
G|---------------------------|---------------------------|
D|---------------------------|---------------------------|
A|---------------------------|---------------------------|
E|---------------------------|---------------------------|

E E E E E E E E E E E E E E E E E E E E E E E E
E|---------------------------|---------------------------|
B|--8/7-5-8/7-5-8/7-5-8/7-5--|--8/7-5-8/7-5-8/7-5-8/7-5--|
G|---------------------------|---------------------------|
D|---------------------------|---------------------------|
A|---------------------------|---------------------------|
E|---------------------------|---------------------------|

DH Q H H
E|----------------------|----------------------|
B|----------------------|-----------7----------|
G|--7----------------7--|--9-------------------|
D|----------------------|----------------------|
A|----------------------|----------------------|
E|----------------------|----------------------|

DH Q H H
E|----------------------|----------------------|
B|----------------------|-----------7----------|
G|----------------------|--9-------------------|
D|--9----------------9--|----------------------|
A|----------------------|----------------------|
E|----------------------|----------------------|

DH Q H H
E|----------------------|----------------------|
B|----------------------|----------------------|
G|--7----------------7--|--9-------11----------|
D|----------------------|----------------------|
A|----------------------|----------------------|
E|----------------------|----------------------|

DQ DQ Q Q Q S S S S S S S S
E|----------------------|---------------------------------|
B|----------------------|---------------------------------|
G|--12------11-------9--|------11----9/11/9/11-9/11-9/11--|
D|----------------------|---------------------------------|
A|----------------------|---------------------------------|
E|----------------------|---------------------------------|

DH Q H Q Q
E|----------------------|----------------------|
B|----------------------|----------------------|
G|--7----------------7--|--9-------11---12-----|
D|----------------------|----------------------|
A|----------------------|----------------------|
E|----------------------|----------------------|

DH Q H Q Q
E|----------------------|----------------------|
B|----------------------|----------------------|
G|--12--------------12--|--16------18---19-----|
D|----------------------|----------------------|
A|----------------------|----------------------|
E|----------------------|----------------------|

DH Q H Q Q
E|----------------------|----------------------|
B|----------------------|--17------19---20-----|
G|--19--------------19--|----------------------|
D|----------------------|----------------------|
A|----------------------|----------------------|
E|----------------------|----------------------|

W W
E|----------------------|----------------------|
B|--20------------------|----------------------|
G|----------------------|----------------------|
D|----------------------|----------------------|
A|----------------------|----------------------|
E|----------------------|----------------------|

W W
E|----------------------|----------------------|
B|----------------------|----------------------|
G|----------------------|----------------------|
D|----------------------|----------------------|
A|----------------------|----------------------|
E|----------------------|----------------------|

PRE-VERSE:
E E E E E E E E E E E E E E E E
E|---------------------------|---------------------------|
B|---------------------------|---------------------------|
G|--11----11----11-11-11-11--|--11----11----11-11-11-11--|
D|---X-----X-----X--X--X--X--|---X-----X-----X--X--X--X--|
A|---9-----9-----9--9--9--9--|---9-----9-----9--9--9--9--|
E|---------------------------|---------------------------|

E E E E E E E E E E E E E E E E
E|---------------------------|---------------------------|
B|---------------------------|---------------------------|
G|--11----11----11-11-11-11--|--11----11----11-11-11-11--|
D|---X-----X-----X--X--X--X--|---X-----X-----X--X--X--X--|
A|---9-----9-----9--9--9--9--|---9-----9-----9--9--9--9--|
E|---------------------------|---------------------------|

E E E E E E E E E E E E E E E E
E|---------------------------|---------------------------|
B|---------------------------|---------------------------|
G|--12----12----12-12-12-12--|--12----12----12-12-12-12--|
D|---X-----X-----X--X--X--X--|---X-----X-----X--X--X--X--|
A|--10----10----10-10-10-10--|--10----10----10-10-10-10--|
E|---------------------------|---------------------------|

E E E E E E E E Q Q Q Q
E|---------------------------|---------------------------|
B|---------------------------|---------------------------|
G|--12----12----12-12-12-12--|--------6-----------7------|
D|---X-----X-----X--X--X--X--|--------6-----------7------|
A|--10----10----10-10-10-10--|--5-----4-----5-----5------|
E|---------------------------|--5-----------5------------|

E E E E E E E E E E E E E E E E
E|---------------------------|---------------------------|
B|---------------------------|---------------------------|
G|--11----11----11-11-11-11--|--11----11----11-11-11-11--|
D|---X-----X-----X--X--X--X--|---X-----X-----X--X--X--X--|
A|---9-----9-----9--9--9--9--|---9-----9-----9--9--9--9--|
E|---------------------------|---------------------------|

E E E E E E E E E E E E E E E E
E|---------------------------|---------------------------|
B|---------------------------|---------------------------|
G|--11----11----11-11-11-11--|--11----11----11-11-11-11--|
D|---X-----X-----X--X--X--X--|---X-----X-----X--X--X--X--|
A|---9-----9-----9--9--9--9--|---9-----9-----9--9--9--9--|
E|---------------------------|---------------------------|

E E E E E E E E E E E E E E E E
E|---------------------------|---------------------------|
B|---------------------------|---------------------------|
G|--12----12----12-12-12-12--|--12----12----12-12-12-12--|
D|---X-----X-----X--X--X--X--|---X-----X-----X--X--X--X--|
A|--10----10----10-10-10-10--|--10----10----10-10-10-10--|
E|---------------------------|---------------------------|

E E E E E E E E Q Q Q Q
E|---------------------------|---------------------------|
B|---------------------------|---------------------------|
G|--12----12----12-12-12-12--|--------6-----------7------|
D|---X-----X-----X--X--X--X--|--------6-----------7------|
A|--10----10----10-10-10-10--|--5-----4-----5-----5------|
E|---------------------------|--5-----------5------------|

VERSE 1:
E E E E E E E E E E E E E E E E
E|---------------------------|---------------------------|
B|---------------------------|---------------------------|
G|--11----11----11-11-11-11--|--11----11----11-11-11-11--|
D|---X-----X-----X--X--X--X--|---X-----X-----X--X--X--X--|
A|---9-----9-----9--9--9--9--|---9-----9-----9--9--9--9--|
E|---------------------------|---------------------------|

E E E E E E E E E E E E E E E E
E|---------------------------|---------------------------|
B|---------------------------|---------------------------|
G|--11----11----11-11-11-11--|--11----11----11-11-11-11--|
D|---X-----X-----X--X--X--X--|---X-----X-----X--X--X--X--|
A|---9-----9-----9--9--9--9--|---9-----9-----9--9--9--9--|
E|---------------------------|---------------------------|

E E E E E E E E E E E E E E E E
E|---------------------------|---------------------------|
B|---------------------------|---------------------------|
G|--12----12----12-12-12-12--|--12----12----12-12-12-12--|
D|---X-----X-----X--X--X--X--|---X-----X-----X--X--X--X--|
A|--10----10----10-10-10-10--|--10----10----10-10-10-10--|
E|---------------------------|---------------------------|

E E E E E E E E Q Q Q Q
E|---------------------------|---------------------------|
B|---------------------------|---------------------------|
G|--12----12----12-12-12-12--|--------6-----------7------|
D|---X-----X-----X--X--X--X--|--------6-----------7------|
A|--10----10----10-10-10-10--|--5-----4-----5-----5------|
E|---------------------------|--5-----------5------------|

E E E E E E E E E E E E E E E E
E|---------------------------|---------------------------|
B|---------------------------|---------------------------|
G|--11----11----11-11-11-11--|--11----11----11-11-11-11--|
D|---X-----X-----X--X--X--X--|---X-----X-----X--X--X--X--|
A|---9-----9-----9--9--9--9--|---9-----9-----9--9--9--9--|
E|---------------------------|---------------------------|

E E E E E E E E E E E E E E E E
E|---------------------------|---------------------------|
B|---------------------------|---------------------------|
G|--11----11----11-11-11-11--|--11----11----11-11-11-11--|
D|---X-----X-----X--X--X--X--|---X-----X-----X--X--X--X--|
A|---9-----9-----9--9--9--9--|---9-----9-----9--9--9--9--|
E|---------------------------|---------------------------|

E E E E E E E E E E E E E E E E
E|---------------------------|---------------------------|
B|---------------------------|---------------------------|
G|--12----12----12-12-12-12--|--12----12----12-12-12-12--|
D|---X-----X-----X--X--X--X--|---X-----X-----X--X--X--X--|
A|--10----10----10-10-10-10--|--10----10----10-10-10-10--|
E|---------------------------|---------------------------|

E E E E E E E E Q Q Q Q
E|---------------------------|---------------------------|
B|---------------------------|---------------------------|
G|--12----12----12-12-12-12--|--------6-----------7------|
D|---X-----X-----X--X--X--X--|--------6-----------7------|
A|--10----10----10-10-10-10--|--5-----4-----5-----5------|
E|---------------------------|--5-----------5------------|

E E E E E E E E E E E E E E E E
E|---------------------------|---------------------------|
B|---------------------------|---------------------------|
G|--11----11----11-11-11-11--|--11----11----11-11-11-11--|
D|---X-----X-----X--X--X--X--|---X-----X-----X--X--X--X--|
A|---9-----9-----9--9--9--9--|---9-----9-----9--9--9--9--|
E|---------------------------|---------------------------|

E E E E E E E E E E E E E E E E
E|---------------------------|---------------------------|
B|---------------------------|---------------------------|
G|--11----11----11-11-11-11--|--11----11----11-11-11-11--|
D|---X-----X-----X--X--X--X--|---X-----X-----X--X--X--X--|
A|---9-----9-----9--9--9--9--|---9-----9-----9--9--9--9--|
E|---------------------------|---------------------------|

E E E E E E E E E E E E E E E E
E|---------------------------|---------------------------|
B|---------------------------|---------------------------|
G|--12----12----12-12-12-12--|--12----12----12-12-12-12--|
D|---X-----X-----X--X--X--X--|---X-----X-----X--X--X--X--|
A|--10----10----10-10-10-10--|--10----10----10-10-10-10--|
E|---------------------------|---------------------------|

E E E E E E E E Q Q Q Q
E|---------------------------|---------------------------|
B|---------------------------|---------------------------|
G|--12----12----12-12-12-12--|--------6-----------7------|
D|---X-----X-----X--X--X--X--|--------6-----------7------|
A|--10----10----10-10-10-10--|--5-----4-----5-----5------|
E|---------------------------|--5-----------5------------|

CHORUS:
Q Q Q Q Q Q Q Q
E|---------------------------|---------------------------|
B|---------------------------|---------------------------|
G|---------------------------|---------------------------|
D|--------4-----7-----4------|--------4-----7-----4------|
A|--5------------------------|--4------------------------|
E|---------------------------|---------------------------|

Q Q Q Q Q Q Q Q
E|---------------------------|---------------------------|
B|---------------------------|---------------------------|
G|--------------2------------|--4-----2------------------|
D|--------4-----------4------|--------------5-----4------|
A|--2------------------------|---------------------------|
E|---------------------------|---------------------------|

Q Q Q Q Q Q Q Q
E|---------------------------|---------------------------|
B|--------------------8------|--7------------------------|
G|--------4-----7------------|--------9-----7-----6------|
D|--5------------------------|---------------------------|
A|---------------------------|---------------------------|
E|---------------------------|---------------------------|

H H H H
E|---------------------------|---------------------------|
B|---------------------------|---------------------------|
G|--9-----------7------------|--6-----------7------------|
D|---------------------------|---------------------------|
A|---------------------------|---------------------------|
E|---------------------------|---------------------------|

Q Q Q Q Q Q Q Q
E|---------------------------|---------------------------|
B|---------------------------|---------------------------|
G|---------------------------|---------------------------|
D|--------4-----7-----4------|--------4-----7-----4------|
A|--5------------------------|--4------------------------|
E|---------------------------|---------------------------|

Q Q Q Q Q Q Q Q
E|---------------------------|---------------------------|
B|---------------------------|---------------------------|
G|--------------2------------|--4-----2------------------|
D|--------4-----------4------|--------------5-----4------|
A|--2------------------------|---------------------------|
E|---------------------------|---------------------------|

Q Q Q Q Q Q Q Q
E|---------------------------|---------------------------|
B|--------------------8------|--7------------------------|
G|--------4-----7------------|--------9-----7-----6------|
D|--5------------------------|---------------------------|
A|---------------------------|---------------------------|
E|---------------------------|---------------------------|

H H H H
E|---------------------------|---------------------------|
B|---------------------------|---------------------------|
G|--9-----------7------------|--6-----------7------------|
D|---------------------------|---------------------------|
A|---------------------------|---------------------------|
E|---------------------------|---------------------------|

PRE-VERSE:
S S S S S S S S Q Q S S S S S S S S Q Q
E|--------------------------|--------------------------|
B|--------------------------|--------------------------|
G|------------------7----7--|------------------6----6--|
D|------------------7----7--|------------------6----6--|
A|--5-5-5-5-5-5-5-5-5----5--|--4-4-4-4-4-4-4-4-4----4--|
E|--------------------------|--------------------------|

S S S S S S S S Q Q S S S S S S S S Q Q
E|--------------------------|--------------------------|
B|--------------------------|--------------------------|
G|------------------4----4--|------------------4----4--|
D|------------------4----4--|------------------4----4--|
A|--2-2-2-2-2-2-2-2-2----2--|--2-2-2-2-2-2-2-2-2----2--|
E|--------------------------|--------------------------|

S S S S S S S S Q Q S S S S S S S S Q Q
E|--------------------------|--------------------------|
B|--------------------------|--------------------------|
G|------------------9----9--|------------------8----8--|
D|------------------9----9--|------------------8----8--|
A|--7-7-7-7-7-7-7-7-7----7--|--6-6-6-6-6-6-6-6-6----6--|
E|--------------------------|--------------------------|

S S S S S S S S Q Q S S S S S S S S Q Q
E|--------------------------|--------------------------|
B|--------------------------|--------------------------|
G|------------------7----7--|------------------7----7--|
D|------------------7----7--|------------------7----7--|
A|--5-5-5-5-5-5-5-5-5----5--|--5-5-5-5-5-5-5-5-5----5--|
E|--------------------------|--------------------------|

VERSE 2:
E E E E E E E E E E E E E E E E
E|---------------------------|---------------------------|
B|---------------------------|---------------------------|
G|--11----11----11-11-11-11--|--11----11----11-11-11-11--|
D|---X-----X-----X--X--X--X--|---X-----X-----X--X--X--X--|
A|---9-----9-----9--9--9--9--|---9-----9-----9--9--9--9--|
E|---------------------------|---------------------------|

E E E E E E E E E E E E E E E E
E|---------------------------|---------------------------|
B|---------------------------|---------------------------|
G|--11----11----11-11-11-11--|--11----11----11-11-11-11--|
D|---X-----X-----X--X--X--X--|---X-----X-----X--X--X--X--|
A|---9-----9-----9--9--9--9--|---9-----9-----9--9--9--9--|
E|---------------------------|---------------------------|

E E E E E E E E E E E E E E E E
E|---------------------------|---------------------------|
B|---------------------------|---------------------------|
G|--12----12----12-12-12-12--|--12----12----12-12-12-12--|
D|---X-----X-----X--X--X--X--|---X-----X-----X--X--X--X--|
A|--10----10----10-10-10-10--|--10----10----10-10-10-10--|
E|---------------------------|---------------------------|

E E E E E E E E Q Q Q Q
E|---------------------------|---------------------------|
B|---------------------------|---------------------------|
G|--12----12----12-12-12-12--|--------6-----------7------|
D|---X-----X-----X--X--X--X--|--------6-----------7------|
A|--10----10----10-10-10-10--|--5-----4-----5-----5------|
E|---------------------------|--5-----------5------------|

E E E E E E E E E E E E E E E E
E|---------------------------|---------------------------|
B|---------------------------|---------------------------|
G|--11----11----11-11-11-11--|--11----11----11-11-11-11--|
D|---X-----X-----X--X--X--X--|---X-----X-----X--X--X--X--|
A|---9-----9-----9--9--9--9--|---9-----9-----9--9--9--9--|
E|---------------------------|---------------------------|

E E E E E E E E E E E E E E E E
E|---------------------------|---------------------------|
B|---------------------------|---------------------------|
G|--11----11----11-11-11-11--|--11----11----11-11-11-11--|
D|---X-----X-----X--X--X--X--|---X-----X-----X--X--X--X--|
A|---9-----9-----9--9--9--9--|---9-----9-----9--9--9--9--|
E|---------------------------|---------------------------|

E E E E E E E E E E E E E E E E
E|---------------------------|---------------------------|
B|---------------------------|---------------------------|
G|--12----12----12-12-12-12--|--12----12----12-12-12-12--|
D|---X-----X-----X--X--X--X--|---X-----X-----X--X--X--X--|
A|--10----10----10-10-10-10--|--10----10----10-10-10-10--|
E|---------------------------|---------------------------|

E E E E E E E E Q Q Q Q
E|---------------------------|---------------------------|
B|---------------------------|---------------------------|
G|--12----12----12-12-12-12--|--------6-----------7------|
D|---X-----X-----X--X--X--X--|--------6-----------7------|
A|--10----10----10-10-10-10--|--5-----4-----5-----5------|
E|---------------------------|--5-----------5------------|

CHORUS:
Q Q Q Q Q Q Q Q
E|---------------------------|---------------------------|
B|---------------------------|---------------------------|
G|---------------------------|---------------------------|
D|--------4-----7-----4------|--------4-----7-----4------|
A|--5------------------------|--4------------------------|
E|---------------------------|---------------------------|

Q Q Q Q Q Q Q Q
E|---------------------------|---------------------------|
B|---------------------------|---------------------------|
G|--------------2------------|--4-----2------------------|
D|--------4-----------4------|--------------5-----4------|
A|--2------------------------|---------------------------|
E|---------------------------|---------------------------|

Q Q Q Q Q Q Q Q
E|---------------------------|---------------------------|
B|--------------------8------|--7------------------------|
G|--------4-----7------------|--------9-----7-----6------|
D|--5------------------------|---------------------------|
A|---------------------------|---------------------------|
E|---------------------------|---------------------------|

H H H H
E|---------------------------|---------------------------|
B|---------------------------|---------------------------|
G|--9-----------7------------|--6-----------7------------|
D|---------------------------|---------------------------|
A|---------------------------|---------------------------|
E|---------------------------|---------------------------|

Q Q Q Q Q Q Q Q
E|---------------------------|---------------------------|
B|---------------------------|---------------------------|
G|---------------------------|---------------------------|
D|--------4-----7-----4------|--------4-----7-----4------|
A|--5------------------------|--4------------------------|
E|---------------------------|---------------------------|

Q Q Q Q Q Q Q Q
E|---------------------------|---------------------------|
B|---------------------------|---------------------------|
G|--------------2------------|--4-----2------------------|
D|--------4-----------4------|--------------5-----4------|
A|--2------------------------|---------------------------|
E|---------------------------|---------------------------|

Q Q Q Q Q Q Q Q
E|---------------------------|---------------------------|
B|--------------------8------|--7------------------------|
G|--------4-----7------------|--------9-----7-----6------|
D|--5------------------------|---------------------------|
A|---------------------------|---------------------------|
E|---------------------------|---------------------------|

H H H H
E|---------------------------|---------------------------|
B|---------------------------|---------------------------|
G|--9-----------7------------|--6-----------7------------|
D|---------------------------|---------------------------|
A|---------------------------|---------------------------|
E|---------------------------|---------------------------|

BREAKDOWN:
Q E E E E E E E E E E E E E E
E|--------------------------|--------------------------|
B|--------------------------|--------------------------|
G|--------------------------|--------------------------|
D|--9-----------------------|--------------------------|
A|--9-----9--9--9--9--9--9--|--9--9--9--9--9--9--9--9--|
E|--7-----7--7--7--7--7--7--|--7--7--7--7--7--7--7--7--|

W W
E|--------------------------|--------------------------|
B|--------------------------|--------------------------|
G|--------------------------|--------------------------|
D|--8-----------------------|--------------------------|
A|--8-----------------------|--------------------------|
E|--6-----------------------|--------------------------|

W W
E|--------------------------|--------------------------|
B|--------------------------|--------------------------|
G|--------------------------|--------------------------|
D|--------------------------|--------------------------|
A|--------------------------|--------------------------|
E|--------------------------|--------------------------|

SOLO:

E E E E E E E E E E E E E E E E
E|---------------------------|---------------------------|
B|---------------------------|---------------------------|
G|--11----11----11-11-11-11--|--11----11----11-11-11--9--|
D|---X-----X-----X--X--X--X--|---X-----X-----X--X--X--X--|
A|---9-----9-----9--9--9--9--|---9-----9-----9--9--9--7--|
E|---------------------------|---------------------------|

E E E E E DQ E Q Q Q Q
E|---------------------------|---------------------------|
B|---------------------------|---------------------------|
G|--11----11----11--9-----9--|--7-----9-----11----9------|
D|---X-----X-----X--------X--|---------------------------|
A|---9-----9-----9--7-----7--|--5-----7-----9-----7------|
E|---------------------------|---------------------------|

E E E E E E E E Q Q Q Q
E|---------------------------|---------------------------|
B|---------------------------|---------------------------|
G|--12----11----12-11----12--|--------11----12----14-----|
D|-- X-----X-----X--X-----X--|---------X-----X-----X-----|
A|--10-----9----10--9----10--|---------9----10----12-----|
E|---------------------------|---------------------------|

Q Q Q Q Q Q Q Q
E|---------------------------|---------------------------|
B|---------------------------|---------------------------|
G|--9-----7-----9----11------|--12----11----12----14-----|
D|---------------------------|---------------------------|
A|--7-----5-----7-----9------|--10----9-----10----12-----|
E|---------------------------|---------------------------|

Q Q E DQ Q Q Q Q
E|---------------------------|---------------------------|
B|--15----14----15--17-------|--19----17----15----14-----|
G|---------------------------|---------------------------|
D|--12----11----12--14-------|--16----14----12----11-----|
A|---------------------------|---------------------------|
E|---------------------------|---------------------------|

Q Q Q Q Q Q Q Q
E|---------------------------|---------------------------|
B|--15----14----15----17-----|--19----17----15----14-----|
G|---------------------------|---------------------------|
D|--12----11----12----14-----|--16----14----12----11-----|
A|---------------------------|---------------------------|
E|---------------------------|---------------------------|
http://www.guitartabcreator.com
Guitar Tab Creator is intended to store guitar tab created through the tool. It currently does not support in-line text editing. Any text you place in here will be lost. If you need to comment on your tab, please use the "Tab Notes" section located below.