Famous Last Words-My Chemical Romance-Rythym Guitar

(/) Slide Up  (\) Slide Down  (h) Hammer On  (p) Pull Off  (b) Bend (r) Release (v) Vibrato

W = Whole Note H = Half Note DQ = Dotted-Quarter Note Q = Quarter Note E = Eigth Note

Famous Last Words
My Chemical Romance

INTRO:
W W W W W W W W W
E|-----|-----|-----|-----|-----|-----|-----|-----|-----|
B|-----|-----|-----|-----|-----|-----|-----|-----|-----|
G|-----|-----|-----|-----|-----|-----|-----|-----|-----|
D|-----|-----|-----|-----|-----|-----|-----|-----|-----|
A|-----|-----|-----|-----|-----|-----|-----|-----|-----|
E|-----|-----|-----|-----|-----|-----|-----|-----|-----|

E E Q H W
E|--------------------------|--------------------------|
B|--------------------------|--------------------------|
G|--7--7--------------------|--------------------------|
D|--7--7--------------------|--------------------------|
A|--5--5--------------------|--------------------------|
E|--------------------------|--------------------------|

E E Q H W
E|--------------------------|--------------------------|
B|--------------------------|--------------------------|
G|--------------------------|--------------------------|
D|--8--8--------------------|--------------------------|
A|--8--8--------------------|--------------------------|
E|--6--6--------------------|--------------------------|

E E Q H W
E|--------------------------|--------------------------|
B|--------------------------|--------------------------|
G|--------------------------|--------------------------|
D|--5--5--------------------|--------------------------|
A|--5--5--------------------|--------------------------|
E|--3--3--------------------|--------------------------|

E E E E E E E E E E E E E E E E
E|--------------------------|--------------------------|
B|--------------------------|--------------------------|
G|--------------------------|--------------------------|
D|--8--8--8--8--8--8--8--8--|--10-10-10-10-10-10-10-10-|
A|--8--8--8--8--8--8--8--8--|--10-10-10-10-10-10-10-10-|
E|--6--6--6--6--6--6--6--6--|--8--8--8--8--8--8--8--8--|

BREAKOUT:
E E Q H E E Q H
E|--------------------------|--------------------------|
B|--------------------------|--------------------------|
G|--7--7--------------------|--7--7--------------------|
D|--7--7--------------------|--7--7--------------------|
A|--5--5--------------------|--5--5--------------------|
E|--------------------------|--------------------------|

E E E E E E E E E E E E E E E E
E|--------------------------|--------------------------|
B|--------------------------|--------------------------|
G|--7--7--------------------|--7--7--7--7--7--7--7--7--|
D|--7--7-----------3--------|--7--7--7--7--7--7--7--7--|
A|--5--5--5--3--5-----5--3--|--5--5--5--5--5--5--5--5--|
E|--------------------------|--------------------------|

VERSE 1:
E E E E E E E E E E E E E E E E
E|--------------------------|--------------------------|
B|--------------------------|--------------------------|
G|--7--7--7--7--7--7--7--7--|--7--7--7--7--5--5--5--5--|
D|--7--7--7--7--7--7--7--7--|--7--7--7--7--5--5--5--5--|
A|--5--5--5--5--5--5--5--5--|--5--5--5--5--3--3--3--3--|
E|--------------------------|--------------------------|

E E E E E E E E E E E E E E E E
E|--------------------------|--------------------------|
B|--------------------------|--------------------------|
G|--------------------------|--------------------------|
D|--8--8--8--8--8--8--8--8--|--8--8--8--8--7--7--7--7--|
A|--8--8--8--8--8--8--8--8--|--8--8--8--8--8--8--8--8--|
E|--6--6--6--6--6--6--6--6--|--6--6--6--6--5--5--5--5--|

E E E E E E E E E E E E E E E E
E|--------------------------|--------------------------|
B|--------------------------|--------------------------|
G|--------------------------|--------------------------|
D|--5--5--5--5--5--5--5--5--|--7--7--7--7--7--7--7--7--|
A|--5--5--5--5--5--5--5--5--|--7--7--7--7--7--7--7--7--|
E|--3--3--3--3--3--3--3--3--|--5--5--5--5--5--5--5--5--|

E E E E E E E E E E E E E E E E
E|--------------------------|--------------------------|
B|--------------------------|--------------------------|
G|--------------------------|--------------------------|
D|--8--8--8--8--8--8--8--8--|--10-10-10-10-10-10-10-10-|
A|--8--8--8--8--8--8--8--8--|--10-10-10-10-10-10-10-10-|
E|--6--6--6--6--6--6--6--6--|--8--8--8--8--8--8--8--8--|

E E E E E E E E E E E E E E E E
E|--------------------------|--------------------------|
B|--------------------------|--------------------------|
G|--7--7--7--7--7--7--7--7--|--7--7--7--7--5--5--5--5--|
D|--7--7--7--7--7--7--7--7--|--7--7--7--7--5--5--5--5--|
A|--5--5--5--5--5--5--5--5--|--5--5--5--5--3--3--3--3--|
E|--------------------------|--------------------------|

E E E E E E E E E E E E E E E E
E|--------------------------|--------------------------|
B|--------------------------|--------------------------|
G|--------------------------|--------------------------|
D|--8--8--8--8--8--8--8--8--|--8--8--8--8--7--7--7--7--|
A|--8--8--8--8--8--8--8--8--|--8--8--8--8--8--8--8--8--|
E|--6--6--6--6--6--6--6--6--|--6--6--6--6--5--5--5--5--|

E E E E E E E E E E E E E E E E
E|--------------------------|--------------------------|
B|--------------------------|--------------------------|
G|--------------------------|--------------------------|
D|--5--5--5--5--5--5--5--5--|--7--7--7--7--7--7--7--7--|
A|--5--5--5--5--5--5--5--5--|--7--7--7--7--7--7--7--7--|
E|--3--3--3--3--3--3--3--3--|--5--5--5--5--5--5--5--5--|

E E E E E E E E E E E E E E E E
E|--------------------------|--------------------------|
B|--------------------------|--------------------------|
G|--------------------------|--------------------------|
D|--8--8--8--8--8--8--8--8--|--10-10-10-10-10----------|
A|--8--8--8--8--8--8--8--8--|--10-10-10-10-10----------|
E|--6--6--6--6--6--6--6--6--|--8--8--8--8--8-----------|

CHORUS:
E E E E E E E E E E E E E E E E
E|--------------------------|--------------------------|
B|--------------------------|--------------------------|
G|--10-10-10-10-10-10-10-10-|--10-10-10-10-9--9--9--9--|
D|--10-10-10-10-10-10-10-10-|--10-10-10-10-9--9--9--9--|
A|--8--8--8--8--8--8--8--8--|--8--8--8--8--7--7--7--7--|
E|--------------------------|--------------------------|

E E E E E E E E E E E E E E E E
E|--------------------------|--------------------------|
B|--------------------------|--------------------------|
G|--7--7--7--7--7--7--7--7--|--7--7--7--7--5--5--5--5--|
D|--7--7--7--7--7--7--7--7--|--7--7--7--7--5--5--5--5--|
A|--5--5--5--5--5--5--5--5--|--5--5--5--5--3--3--3--3--|
E|--------------------------|--------------------------|

E E E E E E E E E E E E E E E E
E|--------------------------|--------------------------|
B|--------------------------|--------------------------|
G|--------------------------|--------------------------|
D|--8--8--8--8--8--8--8--8--|--10-10-10-10-10-10-10-10-|
A|--8--8--8--8--8--8--8--8--|--10-10-10-10-10-10-10-10-|
E|--6--6--6--6--6--6--6--6--|--8--8--8--8--8--8--8--8--|

E E E E E E E E E E E E E E E E
E|--------------------------|--------------------------|
B|--------------------------|--------------------------|
G|--------------------------|--------------------------|
D|--8--8--8--8--8--8--8--8--|--10-10-10-10-10-10-10-10-|
A|--8--8--8--8--8--8--8--8--|--10-10-10-10-10-10-10-10-|
E|--6--6--6--6--6--6--6--6--|--8--8--8--8--8--8--8--8--|

BREAKOUT:
E E Q H E E Q H
E|--------------------------|--------------------------|
B|--------------------------|--------------------------|
G|--7--7--------------------|--7--7--------------------|
D|--7--7--------------------|--7--7--------------------|
A|--5--5--------------------|--5--5--------------------|
E|--------------------------|--------------------------|

E E E E E E E E E E E E E E E E
E|--------------------------|--------------------------|
B|--------------------------|--------------------------|
G|--7--7--------------------|--7--7--7--7--7--7--7--7--|
D|--7--7-----------3--------|--7--7--7--7--7--7--7--7--|
A|--5--5--5--3--5-----5--3--|--5--5--5--5--5--5--5--5--|
E|--------------------------|--------------------------|

VERSE 2:
E E E E E E E E E E E E E E E E
E|--------------------------|--------------------------|
B|--------------------------|--------------------------|
G|--7--7--7--7--7--7--7--7--|--7--7--7--7--5--5--5--5--|
D|--7--7--7--7--7--7--7--7--|--7--7--7--7--5--5--5--5--|
A|--5--5--5--5--5--5--5--5--|--5--5--5--5--3--3--3--3--|
E|--------------------------|--------------------------|

E E E E E E E E E E E E E E E E
E|--------------------------|--------------------------|
B|--------------------------|--------------------------|
G|--------------------------|--------------------------|
D|--8--8--8--8--8--8--8--8--|--8--8--8--8--7--7--7--7--|
A|--8--8--8--8--8--8--8--8--|--8--8--8--8--8--8--8--8--|
E|--6--6--6--6--6--6--6--6--|--6--6--6--6--5--5--5--5--|

E E E E E E E E E E E E E E E E
E|--------------------------|--------------------------|
B|--------------------------|--------------------------|
G|--------------------------|--------------------------|
D|--5--5--5--5--5--5--5--5--|--7--7--7--7--7--7--7--7--|
A|--5--5--5--5--5--5--5--5--|--7--7--7--7--7--7--7--7--|
E|--3--3--3--3--3--3--3--3--|--5--5--5--5--5--5--5--5--|

E E E E E E E E E E E E E E E E
E|--------------------------|--------------------------|
B|--------------------------|--------------------------|
G|--------------------------|--------------------------|
D|--8--8--8--8--8--8--8--8--|--10-10-10-10-10-10-10-10-|
A|--8--8--8--8--8--8--8--8--|--10-10-10-10-10-10-10-10-|
E|--6--6--6--6--6--6--6--6--|--8--8--8--8--8--8--8--8--|

E E E E E E E E E E E E E E E E
E|--------------------------|--------------------------|
B|--------------------------|--------------------------|
G|--7--7--7--7--7--7--7--7--|--7--7--7--7--5--5--5--5--|
D|--7--7--7--7--7--7--7--7--|--7--7--7--7--5--5--5--5--|
A|--5--5--5--5--5--5--5--5--|--5--5--5--5--3--3--3--3--|
E|--------------------------|--------------------------|

E E E E E E E E E E E E E E E E
E|--------------------------|--------------------------|
B|--------------------------|--------------------------|
G|--------------------------|--------------------------|
D|--8--8--8--8--8--8--8--8--|--8--8--8--8--7--7--7--7--|
A|--8--8--8--8--8--8--8--8--|--8--8--8--8--8--8--8--8--|
E|--6--6--6--6--6--6--6--6--|--6--6--6--6--5--5--5--5--|

E E E E E E E E E E E E E E E E
E|--------------------------|--------------------------|
B|--------------------------|--------------------------|
G|--------------------------|--------------------------|
D|--5--5--5--5--5--5--5--5--|--7--7--7--7--7--7--7--7--|
A|--5--5--5--5--5--5--5--5--|--7--7--7--7--7--7--7--7--|
E|--3--3--3--3--3--3--3--3--|--5--5--5--5--5--5--5--5--|

E E E E E E E E E E E E E E E E
E|--------------------------|--------------------------|
B|--------------------------|--------------------------|
G|--------------------------|--------------------------|
D|--8--8--8--8--8--8--8--8--|--10-10-10-10-10----------|
A|--8--8--8--8--8--8--8--8--|--10-10-10-10-10----------|
E|--6--6--6--6--6--6--6--6--|--8--8--8--8--8-----------|

CHORUS:
E E E E E E E E E E E E E E E E
E|--------------------------|--------------------------|
B|--------------------------|--------------------------|
G|--10-10-10-10-10-10-10-10-|--10-10-10-10-9--9--9--9--|
D|--10-10-10-10-10-10-10-10-|--10-10-10-10-9--9--9--9--|
A|--8--8--8--8--8--8--8--8--|--8--8--8--8--7--7--7--7--|
E|--------------------------|--------------------------|

E E E E E E E E E E E E E E E E
E|--------------------------|--------------------------|
B|--------------------------|--------------------------|
G|--7--7--7--7--7--7--7--7--|--7--7--7--7--5--5--5--5--|
D|--7--7--7--7--7--7--7--7--|--7--7--7--7--5--5--5--5--|
A|--5--5--5--5--5--5--5--5--|--5--5--5--5--3--3--3--3--|
E|--------------------------|--------------------------|

E E E E E E E E E E E E E E E E
E|--------------------------|--------------------------|
B|--------------------------|--------------------------|
G|--------------------------|--------------------------|
D|--8--8--8--8--8--8--8--8--|--10-10-10-10-10-10-10-10-|
A|--8--8--8--8--8--8--8--8--|--10-10-10-10-10-10-10-10-|
E|--6--6--6--6--6--6--6--6--|--8--8--8--8--8--8--8--8--|

E E E E E E E E E E E E E E E E
E|--------------------------|--------------------------|
B|--------------------------|--------------------------|
G|--------------------------|--------------------------|
D|--8--8--8--8--8--8--8--8--|--10-10-10-10-10-10-10-10-|
A|--8--8--8--8--8--8--8--8--|--10-10-10-10-10-10-10-10-|
E|--6--6--6--6--6--6--6--6--|--8--8--8--8--8--8--8--8--|

CHORUS:
E E E E E E E E E E E E E E E E
E|--------------------------|--------------------------|
B|--------------------------|--------------------------|
G|--10-10-10-10-10-10-10-10-|--10-10-10-10-9--9--9--9--|
D|--10-10-10-10-10-10-10-10-|--10-10-10-10-9--9--9--9--|
A|--8--8--8--8--8--8--8--8--|--8--8--8--8--7--7--7--7--|
E|--------------------------|--------------------------|

E E E E E E E E E E E E E E E E
E|--------------------------|--------------------------|
B|--------------------------|--------------------------|
G|--7--7--7--7--7--7--7--7--|--7--7--7--7--5--5--5--5--|
D|--7--7--7--7--7--7--7--7--|--7--7--7--7--5--5--5--5--|
A|--5--5--5--5--5--5--5--5--|--5--5--5--5--3--3--3--3--|
E|--------------------------|--------------------------|

E E E E E E E E E E E E E E E E
E|--------------------------|--------------------------|
B|--------------------------|--------------------------|
G|--------------------------|--------------------------|
D|--8--8--8--8--8--8--8--8--|--10-10-10-10-10-10-10-10-|
A|--8--8--8--8--8--8--8--8--|--10-10-10-10-10-10-10-10-|
E|--6--6--6--6--6--6--6--6--|--8--8--8--8--8--8--8--8--|

E E E E E E E E E E E E E E E E
E|--------------------------|--------------------------|
B|--------------------------|--------------------------|
G|--------------------------|--------------------------|
D|--8--8--8--8--8--8--8--8--|--10-10-10-10-10-10-10-10-|
A|--8--8--8--8--8--8--8--8--|--10-10-10-10-10-10-10-10-|
E|--6--6--6--6--6--6--6--6--|--8--8--8--8--8--8--8--8--|

SOLO:
DQ DQ Q E DQ Q Q
E|--------------------------|--------------------------|
B|--------------------------|--------------------------|
G|--7--------5--------------|--------------------------|
D|--7--------5--------8-----|-----7--------5-----3-----|
A|--5--------3--------8-----|-----7--------5-----3-----|
E|--------------------6-----|-----5--------3-----1-----|

E E E E E E E E E E E E E E E E
E|--------------------------|--------------------------|
B|--------------------------|--------------------------|
G|--------------------------|--------------------------|
D|--5--5--5--5--5--5--5--5--|--7--7--7--7--7--7--7--7--|
A|--5--5--5--5--5--5--5--5--|--7--7--7--7--7--7--7--7--|
E|--3--3--3--3--3--3--3--3--|--5--5--5--5--5--5--5--5--|

DQ DQ Q E DQ Q Q
E|--------------------------|--------------------------|
B|--------------------------|--------------------------|
G|--7--------5--------------|--------------------------|
D|--7--------5--------8-----|-----7--------5-----3-----|
A|--5--------3--------8-----|-----7--------5-----3-----|
E|--------------------6-----|-----5--------3-----1-----|

E E E E E E E E E E E E E E E E
E|--------------------------|--------------------------|
B|--------------------------|--------------------------|
G|--------------------------|--------------------------|
D|--5--5--5--5--5--5--5--5--|--7--7--7--7--7--7--7--7--|
A|--5--5--5--5--5--5--5--5--|--7--7--7--7--7--7--7--7--|
E|--3--3--3--3--3--3--3--3--|--5--5--5--5--5--5--5--5--|

DQ DQ Q E DQ Q Q
E|--------------------------|--------------------------|
B|--------------------------|--------------------------|
G|--7--------5--------------|--------------------------|
D|--7--------5--------8-----|-----7--------5-----3-----|
A|--5--------3--------8-----|-----7--------5-----3-----|
E|--------------------6-----|-----5--------3-----1-----|

E E E E E E E E E E E E E E E E
E|--------------------------|--------------------------|
B|--------------------------|--------------------------|
G|--------------------------|--------------------------|
D|--5--5--5--5--5--5--5--5--|--7--7--7--7--7--7--7--7--|
A|--5--5--5--5--5--5--5--5--|--7--7--7--7--7--7--7--7--|
E|--3--3--3--3--3--3--3--3--|--5--5--5--5--5--5--5--5--|

DQ DQ Q E DQ Q Q
E|--------------------------|--------------------------|
B|--------------------------|--------------------------|
G|--7--------5--------------|--------------------------|
D|--7--------5--------8-----|-----7--------5-----3-----|
A|--5--------3--------8-----|-----7--------5-----3-----|
E|--------------------6-----|-----5--------3-----1-----|

E E E E E E E E E E E E E E E E
E|--------------------------|--------------------------|
B|--------------------------|--------------------------|
G|--------------------------|--------------------------|
D|--5--5--5--5--5--5--5--5--|--7--7--7--7--7--7--7--7--|
A|--5--5--5--5--5--5--5--5--|--7--7--7--7--7--7--7--7--|
E|--3--3--3--3--3--3--3--3--|--5--5--5--5--5--5--5--5--|

BRIDGE:
E E E E E E E E E E E E E E E E
E|--------------------------|--------------------------|
B|--------------------------|--------------------------|
G|--10-10-------------------|--------------------------|
D|--X--X--10-10-10-10-10-10-|--10-10-10-10-10-10-10-10-|
A|--8--8--8--8--8--8--8--8--|--8--8--8--8--7--7--7--7--|
E|--------------------------|--------------------------|

E E E E E E E E E E E E E E E E
E|--------------------------|--------------------------|
B|--------------------------|--------------------------|
G|--------------------------|--------------------------|
D|--7--7--7--7--7--7--7--7--|--7--7--7--7--------------|
A|--5--5--5--5--5--5--5--5--|--5--5--5--5--7--7--7--7--|
E|--------------------------|--------------5--5--5--5--|

E E E E E E E E E E E E E E E E
E|--------------------------|--------------------------|
B|--------------------------|--------------------------|
G|--------------------------|--------------------------|
D|--------------------------|--5--5--5--5--5--5--5--5--|
A|--8--8--8--8--8--8--8--8--|--3--3--3--3--3--3--3--3--|
E|--6--6--6--6--6--6--6--6--|--------------------------|

E E E E E E E E E E E E E E E E
E|--------------------------|--------------------------|
B|--------------------------|--------------------------|
G|--------------------------|--------------------------|
D|--------------------------|--------------------------|
A|--5--5--5--5--5--5--5--5--|--10-10-10-10-8--8--8--8--|
E|--3--3--3--3--3--3--3--3--|--8--8--8--8--6--6--6--6--|

E E E E E E E E E E E E E E E E
E|--------------------------|--------------------------|
B|--------------------------|--------------------------|
G|--------------------------|--------------------------|
D|--------------------------|--------------5--5--5--5--|
A|--7--7--7--7--7--7--7--7--|--7--7--7--7--3--3--3--3--|
E|--5--5--5--5--5--5--5--5--|--5--5--5--5--------------|

E E E E E E E E E E E E E E E E
E|--------------------------|--------------------------|
B|--------------------------|--------------------------|
G|--------------------------|--------------------------|
D|--7--7--7--7--7--7--7--7--|--7--7--7--7--5--5--5--5--|
A|--5--5--5--5--5--5--5--5--|--5--5--5--5--3--3--3--3--|
E|--------------------------|--------------------------|

E E E E E E E E E E E E E E E E
E|--------------------------|--------------------------|
B|--------------------------|--------------------------|
G|--------------------------|--------------------------|
D|--3--3--3--3--3--3--3--3--|--5--5--5--5--5--5--5--5--|
A|--1--1--1--1--1--1--1--1--|--3--3--3--3--3--3--3--3--|
E|--------------------------|--------------------------|

E E E E E E E E E E E E E E E E
E|--------------------------|--------------------------|
B|--------------------------|--------------------------|
G|--------------------------|--------------------------|
D|--------------------------|--5--5--5--5--3--3--3--3--|
A|--5--5--5--5--5--5--5--5--|--3--3--3--3--1--1--1--1--|
E|--3--3--3--3--3--3--3--3--|--------------------------|

BRIDGE (CONTINUED):
E E E E E E E E E E E E E E E E
E|--------------------------|--------------------------|
B|--------------------------|--------------------------|
G|--10-10-10-10-10-10-10-10-|--10-10-10-10-9--9--9--9--|
D|--10-10-10-10-10-10-10-10-|--10-10-10-10-10-10-10-10-|
A|--8--8--8--8--8--8--8--8--|--8--8--8--8--7--7--7--7--|
E|--------------------------|--------------------------|

E E E E E E E E E E E E E E E E
E|--------------------------|--------------------------|
B|--------------------------|--------------------------|
G|--7--7--7--7--7--7--7--7--|--7--7--7--7--5--5--5--5--|
D|--7--7--7--7--7--7--7--7--|--7--7--7--7--5--5--5--5--|
A|--5--5--5--5--5--5--5--5--|--5--5--5--5--3--3--3--3--|
E|--------------------------|--------------------------|

E E E E E E E E E E E E E E E E
E|--------------------------|--------------------------|
B|--------------------------|--------------------------|
G|--3--3--3--3--3--3--3--3--|--5--5--5--5--5--5--5--5--|
D|--3--3--3--3--3--3--3--3--|--5--5--5--5--5--5--5--5--|
A|--1--1--1--1--1--1--1--1--|--3--3--3--3--3--3--3--3--|
E|--------------------------|--------------------------|

E E E E E E E E E E E E E E E E
E|--------------------------|--------------------------|
B|--------------------------|--------------------------|
G|--------------------------|--5--5--5--5--5--5--5--5--|
D|--5--5--5--5--5--5--5--5--|--5--5--5--5--5--5--5--5--|
A|--5--5--5--5--5--5--5--5--|--3--3--3--3--3--3--3--3--|
E|--3--3--3--3--3--3--3--3--|--------------------------|

E E E E E E E E E E E E E E E E
E|--------------------------|--------------------------|
B|--------------------------|--------------------------|
G|--2--2--2--2--2--2--2--2--|--2--2--2--2--5--5--5--5--|
D|--2--2--2--2--2--2--2--2--|--2--2--2--2--5--5--5--5--|
A|--0--0--0--0--0--0--0--0--|--0--0--0--0--3--3--3--3--|
E|--------------------------|--------------------------|

E E E E E E E E E E E E E E E E
E|--------------------------|--------------------------|
B|--------------------------|--------------------------|
G|--7--7--7--7--7--7--7--7--|--7--7--7--7--5--5--5--5--|
D|--7--7--7--7--7--7--7--7--|--7--7--7--7--5--5--5--5--|
A|--5--5--5--5--5--5--5--5--|--5--5--5--5--3--3--3--3--|
E|--------------------------|--------------------------|

E E E E E E E E E E E E E E E E
E|--------------------------|--------------------------|
B|--------------------------|--------------------------|
G|--3--3--3--3--3--3--3--3--|--5--5--5--5--5--5--5--5--|
D|--3--3--3--3--3--3--3--3--|--5--5--5--5--5--5--5--5--|
A|--1--1--1--1--1--1--1--1--|--3--3--3--3--3--3--3--3--|
E|--------------------------|--------------------------|

E E E E E E E E E E E E E E E E
E|--------------------------|--------------------------|
B|--------------------------|--------------------------|
G|--------------------------|--5--5--5--5--5--5--5--5--|
D|--5--5--5--5--5--5--5--5--|--5--5--5--5--5--5--5--5--|
A|--5--5--5--5--5--5--5--5--|--3--3--3--3--3--3--3--3--|
E|--3--3--3--3--3--3--3--3--|--------------------------|

OUTRO:
E E E E E E E E E E E E E E E E
E|--------------------------|--------------------------|
B|--------------------------|--------------------------|
G|--10-10-10-10-10-10-10-10-|--10-10-10-10-9--9--9--9--|
D|--10-10-10-10-10-10-10-10-|--10-10-10-10-10-10-10-10-|
A|--8--8--8--8--8--8--8--8--|--8--8--8--8--7--7--7--7--|
E|--------------------------|--------------------------|

E E E E E E E E E E E E E E E E
E|--------------------------|--------------------------|
B|--------------------------|--------------------------|
G|--7--7--7--7--7--7--7--7--|--7--7--7--7--5--5--5--5--|
D|--7--7--7--7--7--7--7--7--|--7--7--7--7--5--5--5--5--|
A|--5--5--5--5--5--5--5--5--|--5--5--5--5--3--3--3--3--|
E|--------------------------|--------------------------|

E E E E E E E E E E E E E E E E
E|--------------------------|--------------------------|
B|--------------------------|--------------------------|
G|--3--3--3--3--3--3--3--3--|--5--5--5--5--5--5--5--5--|
D|--3--3--3--3--3--3--3--3--|--5--5--5--5--5--5--5--5--|
A|--1--1--1--1--1--1--1--1--|--3--3--3--3--3--3--3--3--|
E|--------------------------|--------------------------|

E E E E E E E E E E E E E E E E
E|--------------------------|--------------------------|
B|--------------------------|--------------------------|
G|--------------------------|--5--5--5--5--5--5--5--5--|
D|--5--5--5--5--5--5--5--5--|--5--5--5--5--5--5--5--5--|
A|--5--5--5--5--5--5--5--5--|--3--3--3--3--3--3--3--3--|
E|--3--3--3--3--3--3--3--3--|--------------------------|

E E E E E E E E E E E E E E E E
E|--------------------------|--------------------------|
B|--------------------------|--------------------------|
G|--2--2--2--2--2--2--2--2--|--2--2--2--2--5--5--5--5--|
D|--2--2--2--2--2--2--2--2--|--2--2--2--2--5--5--5--5--|
A|--0--0--0--0--0--0--0--0--|--0--0--0--0--3--3--3--3--|
E|--------------------------|--------------------------|

E E E E E E E E E E E E E E E E
E|--------------------------|--------------------------|
B|--------------------------|--------------------------|
G|--7--7--7--7--7--7--7--7--|--7--7--7--7--5--5--5--5--|
D|--7--7--7--7--7--7--7--7--|--7--7--7--7--5--5--5--5--|
A|--5--5--5--5--5--5--5--5--|--5--5--5--5--3--3--3--3--|
E|--------------------------|--------------------------|

E E E E E E E E E E E E E E E E
E|--------------------------|--------------------------|
B|--------------------------|--------------------------|
G|--3--3--3--3--3--3--3--3--|--5--5--5--5--5--5--5--5--|
D|--3--3--3--3--3--3--3--3--|--5--5--5--5--5--5--5--5--|
A|--1--1--1--1--1--1--1--1--|--3--3--3--3--3--3--3--3--|
E|--------------------------|--------------------------|

E E E E E E E E E E E E E E E E
E|--------------------------|--------------------------|
B|--------------------------|--------------------------|
G|--------------------------|--5--5--5--5--5--5--5--5--|
D|--5--5--5--5--5--5--5--5--|--5--5--5--5--5--5--5--5--|
A|--5--5--5--5--5--5--5--5--|--3--3--3--3--3--3--3--3--|
E|--3--3--3--3--3--3--3--3--|--------------------------|

E E E E E E E E E E E E E E E E
E|--------------------------|--------------------------|
B|--------------------------|--------------------------|
G|--10-10-10-10-10-10-10-10-|--10-10-10-10-9--9--9--9--|
D|--10-10-10-10-10-10-10-10-|--10-10-10-10-10-10-10-10-|
A|--8--8--8--8--8--8--8--8--|--8--8--8--8--7--7--7--7--|
E|--------------------------|--------------------------|

E E E E E E E E E E E E E E E E
E|--------------------------|--------------------------|
B|--------------------------|--------------------------|
G|--7--7--7--7--7--7--7--7--|--7--7--7--7--5--5--5--5--|
D|--7--7--7--7--7--7--7--7--|--7--7--7--7--5--5--5--5--|
A|--5--5--5--5--5--5--5--5--|--5--5--5--5--3--3--3--3--|
E|--------------------------|--------------------------|

E E E E E E E E E E E E E E E E
E|--------------------------|--------------------------|
B|--------------------------|--------------------------|
G|--3--3--3--3--3--3--3--3--|--5--5--5--5--5--5--5--5--|
D|--3--3--3--3--3--3--3--3--|--5--5--5--5--5--5--5--5--|
A|--1--1--1--1--1--1--1--1--|--3--3--3--3--3--3--3--3--|
E|--------------------------|--------------------------|

W W
E|-----|-----|
B|-----|-----|
G|-----|-----|
D|-----|-----|
A|-----|-----|
E|-----|-----|

http://www.guitartabcreator.com
Guitar Tab Creator is intended to store guitar tab created through the tool. It currently does not support in-line text editing. Any text you place in here will be lost. If you need to comment on your tab, please use the "Tab Notes" section located below.