Famous Last Words-My Chemical Romance-Lead Guitar

(/) Slide Up  (\) Slide Down  (h) Hammer On  (p) Pull Off  (b) Bend (r) Release (v) Vibrato

W = Whole Note DH = Dotted-Half Note H = Half Note DQ = Dotted-Quarter Note
Q = Quarter Note E = Eigth Note S = Sixteenth Note

Famous Last Words
My Chemical Romance

INTRO:
E E E E E E E E E E E E E E E E
E|--------------------------|--------------------------|
B|--------------------------|--------------------------|
G|--7--7--------------------|--------------------------|
D|--7--7--7--7--7--7--7--7--|--7--7--7--7--5--5--5--5--|
A|--5--5--5--5--5--5--5--5--|--5--5--5--5--3--3--3--3--|
E|--------------------------|--------------------------|

E E E E E E E E E E E E E E E E
E|--------------------------|--------------------------|
B|--------------------------|--------------------------|
G|--------------------------|--------------------------|
D|--------------------------|--------------7--7--7--7--|
A|--8--8--8--8--8--8--8--8--|--8--8--8--8--8--8--8--8--|
E|--6--6--6--6--6--6--6--6--|--6--6--6--6--5--5--5--5--|

E E E E E E E E E E E E E E E E
E|--------------------------|--------------------------|
B|--------------------------|--------------------------|
G|--5--5--5--3--3--3--3--3--|--------------------------|
D|--5--5--5--5--5--5--5--5--|--------------------------|
A|--5--5--5--5--5--5--5--5--|--7--7--7--7--10-10-10-10-|
E|--3--3--3--3--3--3--3--3--|--5--5--5--5--5--5--5--5--|

E E E E E E E E E E E E E E E E
E|--------------------------|--------------------------|
B|--------------------------|--------------------------|
G|--------------------------|--------------------------|
D|--------------------------|--------------------------|
A|--8--8--8--8--8--8--8--8--|--8--8--8--8--7--7--7--7--|
E|--6--6--6--6--6--6--6--6--|--8--8--8--8--8--8--8--8--|

E E E E E E E E E E E E E E E E
E|--------------------------|--------------------------|
B|--------------------------|--------------------------|
G|--7--7--------------------|--------------------------|
D|--7--7--7--7--7--7--7--7--|--7--7--7--7--5--5--5--5--|
A|--5--5--5--5--5--5--5--5--|--5--5--5--5--3--3--3--3--|
E|--------------------------|--------------------------|

E E E E E E E E E E E E E E E E
E|--------------------------|--------------------------|
B|--------------------------|--------------------------|
G|--------------------------|--------------------------|
D|--8--8--------------------|--------------7--7--7--7--|
A|--8--8--8--8--8--8--8--8--|--8--8--8--8--8--8--8--8--|
E|--6--6--6--6--6--6--6--6--|--6--6--6--6--5--5--5--5--|

E E E E E E E E E E E E E E E E
E|--------------------------|--------------------------|
B|--------------------------|--------------------------|
G|--5--5--5--3--3--3--3--3--|--------------------------|
D|--5--5--5--5--5--5--5--5--|--------------------------|
A|--5--5--5--5--5--5--5--5--|--7--7--7--7--10-10-10-10-|
E|--3--3--3--3--3--3--3--3--|--5--5--5--5--5--5--5--5--|

E E E E E E E E E E E E E E E E
E|--------------------------|--------------------------|
B|--------------------------|--------------------------|
G|--------------------------|--------------------------|
D|--8--8--------------------|--------------------------|
A|--8--8--8--8--8--8--8--8--|--8--8--8--8--7--7--7--7--|
E|--6--6--6--6--6--6--6--6--|--8--8--8--8--8--8--8--8--|

BREAKOUT:
E E E E E E E E E E E E E E E E
E|--------------------------|--------------------------|
B|--------------------------|--------------------------|
G|--7--7--------------------|--7--7--------------------|
D|--7--7-----------3--------|--7--7-----------3--5--3--|
A|--5--5--5--3--5-----5--3--|--5--5--5--3--5-----------|
E|--------------------------|--------------------------|

E E E E E E E E E E E E E E E E
E|--------------------------|--------------------------|
B|--------------------------|--------------------------|
G|--7--7--------------------|--7--7--7--7--7--7--7--7--|
D|--7--7-----------3--------|--7--7--7--7--7--7--7--7--|
A|--5--5--5--3--5-----5--3--|--5--5--5--5--5--5--5--5--|
E|--------------------------|--------------------------|

VERSE 1:
E E E E E E E E E E E E E E E E
E|--------------------------|--------------------------|
B|--------------------------|--------------------------|
G|--7--7--7--7--7--7--7--7--|--10-10-10-10-9--9--9--9--|
D|--X--X--X--X--X--X--X--X--|--X--X--X--X--X--X--X--X--|
A|--5--5--5--5--5--5--5--5--|--8--8--8--8--7--7--7--7--|
E|--------------------------|--------------------------|

E E E E E E E E E E E E E E E E
E|--------------------------|--------------------------|
B|--------------------------|--------------------------|
G|--7--7--7--7--7--7--7--7--|--9--9--10-10-12-12-12-12-|
D|--X--X--X--X--X--X--X--X--|--X--X--X--X--X--X--X--X--|
A|--5--5--5--5--5--5--5--5--|--7--7--8--8--10-10-10-10-|
E|--------------------------|--------------------------|

E E E E E E E E E E E E E E E E
E|--------------------------|--------------------------|
B|--------------------------|--------------------------|
G|--7--7--7--7--7--7--7--7--|--9--9--9--9--9--9--9--9--|
D|--X--X--X--X--X--X--X--X--|--X--X--X--X--X--X--X--X--|
A|--5--5--5--5--5--5--5--5--|--7--7--7--7--7--7--7--7--|
E|--------------------------|--------------------------|

E E E E E E E E E E E E E E E E
E|--------------------------|--------------------------|
B|--------------------------|--------------------------|
G|--10-10-10-10-10-10-10-10-|--12-12-12-12-12-12-12-12-|
D|--X--X--X--X--X--X--X--X--|--X--X--X--X--X--X--X--X--|
A|--8--8--8--8--8--8--8--8--|--10-10-10-10-10-10-10-10-|
E|--------------------------|--------------------------|

E E E E E E E E E E E E E E E E
E|--------------------------|--------------------------|
B|--------------------------|--------------------------|
G|--7--7--7--7--7--7--7--7--|--10-10-10-10-9--9--9--9--|
D|--X--X--X--X--X--X--X--X--|--X--X--X--X--X--X--X--X--|
A|--5--5--5--5--5--5--5--5--|--8--8--8--8--7--7--7--7--|
E|--------------------------|--------------------------|

E E E E E E E E E E E E E E E E
E|--------------------------|--------------------------|
B|--------------------------|--------------------------|
G|--7--7--7--7--7--7--7--7--|--9--9--10-10-12-12-12-12-|
D|--X--X--X--X--X--X--X--X--|--X--X--X--X--X--X--X--X--|
A|--5--5--5--5--5--5--5--5--|--7--7--8--8--10-10-10-10-|
E|--------------------------|--------------------------|

E E E E E E E E E E E E E E E E
E|--------------------------|--------------------------|
B|--------------------------|--------------------------|
G|--7--7--7--7--7--7--7--7--|--9--9--9--9--9--9--9--9--|
D|--X--X--X--X--X--X--X--X--|--X--X--X--X--X--X--X--X--|
A|--5--5--5--5--5--5--5--5--|--7--7--7--7--7--7--7--7--|
E|--------------------------|--------------------------|

E E E E E E E E E E E E E E E E
E|--------------------------|--------------------------|
B|--------------------------|--------------------------|
G|--10-10-10-10-10-10-10-10-|--12-12-12-12-12----------|
D|--X--X--X--X--X--X--X--X--|--X--X--X--X--X-----------|
A|--8--8--8--8--8--8--8--8--|--10-10-10-10-10----------|
E|--------------------------|--------------------------|

CHORUS:
E E E E E E E E E E E E E E E E
E|--------------------------|--------------------------|
B|--------------------------|--------------------------|
G|--14-14-14-14-14-14-14-14-|--14-14-14-14-12-12-12-12-|
D|--X--X--X--X--x--X--X--X--|--X--X--X--X--X--X--X--X--|
A|--12-12-12-12-12-12-12-12-|--12-12-12-12-10-10-10-10-|
E|--------------------------|--------------------------|

E E E E E E E E E E E E E E E E
E|--------------------------|--------------------------|
B|--------------------------|--------------------------|
G|--14-14-14-14-14-14-14-14-|--14-14-14-14-12-12-12-12-|
D|--X--X--X--X--x--X--X--X--|--X--X--X--X--X--X--X--X--|
A|--12-12-12-12-12-12-12-12-|--12-12-12-12-10-10-10-10-|
E|--------------------------|--------------------------|

E E E E E E E E E E E E E E E E
E|--------------------------|--------------------------|
B|--------------------------|--------------------------|
G|--10-10-10-10-10-10-10-10-|--12-12-12-12-12-12-12-12-|
D|--X--X--X--X--X--X--X--X--|--X--X--X--X--X--X--X--X--|
A|--8--8--8--8--8--8--8--8--|--10-10-10-10-10-10-10-10-|
E|--------------------------|--------------------------|

E E E E E E E E E E E E E E E E
E|--------------------------|--------------------------|
B|--------------------------|--------------------------|
G|--10-10-10-10-10-10-10-10-|--9--9--9--9--9--9--9--9--|
D|--X--X--X--X--X--X--X--X--|--X--X--X--X--X--X--X--X--|
A|--8--8--8--8--8--8--8--8--|--7--7--7--7--7--7--7--7--|
E|--------------------------|--------------------------|

BREAKOUT:
E E E E E E E E E E E E E E E E
E|--------------------------|--------------------------|
B|--------------------------|--------------------------|
G|--7--7--------------------|--7--7--------------------|
D|--7--7-----------3--------|--7--7-----------3--5--3--|
A|--5--5--5--3--5-----5--3--|--5--5--5--3--5-----------|
E|--------------------------|--------------------------|

E E E E E E E E E E E E E E E E
E|--------------------------|--------------------------|
B|--------------------------|--------------------------|
G|--7--7--------------------|--7--7--7--7--7--7--7--7--|
D|--7--7-----------3--------|--7--7--7--7--7--7--7--7--|
A|--5--5--5--3--5-----5--3--|--5--5--5--5--5--5--5--5--|
E|--------------------------|--------------------------|

VERSE 2:
E E E E E E E E E E E E E E E E
E|--------------------------|--------------------------|
B|-----------------6--------|-----------------6--------|
G|--7--5--7--5--7-----7--5--|--7--5--7--5--7-----7--5--|
D|--------------------------|--------------------------|
A|--------------------------|--------------------------|
E|--------------------------|--------------------------|

E E E E E E E E E E E E E E E E
E|--------------------------|--------------------------|
B|-----------------6--------|-----------------6--------|
G|--7--5--7--5--7-----7--5--|--7--5--7--5--7-----7--5--|
D|--------------------------|--------------------------|
A|--------------------------|--------------------------|
E|--------------------------|--------------------------|

E E E E E E E E E E E E E E E E
E|--------------------------|--------------------------|
B|-----------------6--------|--6--6--6--5--5-----------|
G|--7--5--7--5--7-----7--5--|-----------------7--5--3--|
D|--------------------------|--------------------------|
A|--------------------------|--------------------------|
E|--------------------------|--------------------------|

E E E E E E E E E E E E E E E E
E|--------------------------|--------------------------|
B|--6--6--6--5--5-----------|--6--6--6--5--5-----------|
G|-----------------7--5--3--|-----------------7--5--2--|
D|--------------------------|--------------------------|
A|--------------------------|--------------------------|
E|--------------------------|--------------------------|

E E E E E E E E E E E E E E E E
E|--------------------------|--------------------------|
B|-----------------6--------|-----------------6--------|
G|--7--5--7--5--7-----7--5--|--7--5--7--5--7-----7--5--|
D|--------------------------|--------------------------|
A|--------------------------|--------------------------|
E|--------------------------|--------------------------|

E E E E E E E E E E E E E E E E
E|--------------------------|--------------------------|
B|-----------------6--------|-----------------6--------|
G|--7--5--7--5--7-----7--5--|--7--5--7--5--7-----7--5--|
D|--------------------------|--------------------------|
A|--------------------------|--------------------------|
E|--------------------------|--------------------------|

E E E E E E E E E E E E E E E E
E|--------------------------|--------------------------|
B|-----------------6--------|--6--6--6--5--5-----------|
G|--7--5--7--5--7-----7--5--|-----------------7--5--3--|
D|--------------------------|--------------------------|
A|--------------------------|--------------------------|
E|--------------------------|--------------------------|

E E E E E E E E E E E E E E E E
E|--------------------------|--------------------------|
B|--6--6--6--5--5-----------|--6--6--6--5--5-----------|
G|-----------------7--5--3--|--------------------------|
D|--------------------------|--------------------------|
A|--------------------------|--------------------------|
E|--------------------------|--------------------------|

CHORUS:
E E E E E E E E E E E E E E E E
E|--------------------------|--------------------------|
B|--------------------------|--------------------------|
G|--14-14-14-14-14-14-14-14-|--14-14-14-14-12-12-12-12-|
D|--X--X--X--X--x--X--X--X--|--X--X--X--X--X--X--X--X--|
A|--12-12-12-12-12-12-12-12-|--12-12-12-12-10-10-10-10-|
E|--------------------------|--------------------------|

E E E E E E E E E E E E E E E E
E|--------------------------|--------------------------|
B|--------------------------|--------------------------|
G|--14-14-14-14-14-14-14-14-|--14-14-14-14-12-12-12-12-|
D|--X--X--X--X--x--X--X--X--|--X--X--X--X--X--X--X--X--|
A|--12-12-12-12-12-12-12-12-|--12-12-12-12-10-10-10-10-|
E|--------------------------|--------------------------|

E E E E E E E E E E E E E E E E
E|--------------------------|--------------------------|
B|--------------------------|--------------------------|
G|--10-10-10-10-10-10-10-10-|--12-12-12-12-12-12-12-12-|
D|--X--X--X--X--X--X--X--X--|--X--X--X--X--X--X--X--X--|
A|--8--8--8--8--8--8--8--8--|--10-10-10-10-10-10-10-10-|
E|--------------------------|--------------------------|

E E E E E E E E E E E E E E E E
E|--------------------------|--------------------------|
B|--------------------------|--------------------------|
G|--10-10-10-10-10-10-10-10-|--9--9--9--9--9--9--9--9--|
D|--X--X--X--X--X--X--X--X--|--X--X--X--X--X--X--X--X--|
A|--8--8--8--8--8--8--8--8--|--7--7--7--7--7--7--7--7--|
E|--------------------------|--------------------------|

CHORUS:
E E E E E E E E E E E E E E E E
E|--------------------------|--------------------------|
B|--------------------------|--------------------------|
G|--14-14-14-14-14-14-14-14-|--14-14-14-14-12-12-12-12-|
D|--X--X--X--X--x--X--X--X--|--X--X--X--X--X--X--X--X--|
A|--12-12-12-12-12-12-12-12-|--12-12-12-12-10-10-10-10-|
E|--------------------------|--------------------------|

E E E E E E E E E E E E E E E E
E|--------------------------|--------------------------|
B|--------------------------|--------------------------|
G|--14-14-14-14-14-14-14-14-|--14-14-14-14-12-12-12-12-|
D|--X--X--X--X--x--X--X--X--|--X--X--X--X--X--X--X--X--|
A|--12-12-12-12-12-12-12-12-|--12-12-12-12-10-10-10-10-|
E|--------------------------|--------------------------|

E E E E E E E E E E E E E E E E
E|--------------------------|--------------------------|
B|--------------------------|--------------------------|
G|--10-10-10-10-10-10-10-10-|--12-12-12-12-12-12-12-12-|
D|--X--X--X--X--X--X--X--X--|--X--X--X--X--X--X--X--X--|
A|--8--8--8--8--8--8--8--8--|--10-10-10-10-10-10-10-10-|
E|--------------------------|--------------------------|

E E E E E E E E E E E E E E E E
E|--------------------------|--------------------------|
B|--------------------------|--------------------------|
G|--10-10-10-10-10-10-10-10-|--9--9--9--9--9--9--9--9--|
D|--X--X--X--X--X--X--X--X--|--X--X--X--X--X--X--X--X--|
A|--8--8--8--8--8--8--8--8--|--7--7--7--7--7--7--7--7--|
E|--------------------------|--------------------------|

SOLO:
DQ Q S S E E Q Q S S S S S S S S
E|------------------------------15---13--|---------------------------------------------|
B|--13-----------13-------15-13----------|-----------13-------18-17-15-17-15-13-15-13--|
G|---------------------------------------|---------------------------------------------|
D|---------------------------------------|---------------------------------------------|
A|---------------------------------------|---------------------------------------------|
E|---------------------------------------|---------------------------------------------|

DQ Q S S E E E E E E S S S S S S S S
E|---------------------------------------|----------------------------------------------|
B|---------------------------------------|-------13-------------10-8--6--8--6--5--------|
G|--17-----------17-------17-14-17---14--|------------14--------------------------7--5--|
D|---------------------------------------|-----------------15---------------------------|
A|---------------------------------------|----------------------------------------------|
E|---------------------------------------|----------------------------------------------|

DQ DQ Q E DQ Q Q
E|---------------------------------------|--------------------------------------|
B|---------------------------------------|--------------------------------------|
G|--10-----------9------------12---------|-------10-----------14-------12-------|
D|---------------------------------------|--------------------------------------|
A|---------------------------------------|--------------------------------------|
E|---------------------------------------|--------------------------------------|

DQ Q S S E E E Q E S S S S S S S S
E|---------------------------------------|---------------------------------------------|
B|---------------------------------------|---------------------------------------------|
G|--15-----------15-------14-12-14---12--|-------10-------9----10-9--7--12-14-12-10-9--|
D|---------------------------------------|---------------------------------------------|
A|---------------------------------------|---------------------------------------------|
E|---------------------------------------|---------------------------------------------|

DQ DQ Q E DQ Q Q
E|---------------------------------------|--------------------------------------|
B|---------------------------------------|--------------------------------------|
G|--7------------7------------7----------|-------5------------3--------2--------|
D|---------------------------------------|--------------------------------------|
A|---------------------------------------|--------------------------------------|
E|---------------------------------------|--------------------------------------|

S S S S S S S E S S S S S S S
E|-------------------------------------------------|
B|-------------------------------------------------|
G|-------------------------------------------------|
D|--8--7--8--7-------------------------------------|
A|--------------10-8--7----------------5--7--8--10-|
E|-----------------------10---8--7--5--------------|

S S S S S S S S E E E E
E|----------------------------------------------|
B|----------------------------------------------|
G|--------------10-12-14-15-15---14---12---14---|
D|--5--7--8--10---------------------------------|
A|----------------------------------------------|
E|----------------------------------------------|

DQ DQ Q E DQ Q Q
E|----------------------------15-------|-------13-----------------------------|
B|--13-----------13--------------------|--------------------15-------13-------|
G|-------------------------------------|--------------------------------------|
D|-------------------------------------|--------------------------------------|
A|-------------------------------------|--------------------------------------|
E|-------------------------------------|--------------------------------------|

E E E E E E E E E E E E E E E E
E|------------------------------------------|--13---13---13---13---13---13---13---13---|
B|--13---13---13---13---13---13---13---13---|------------------------------------------|
G|------------------------------------------|------------------------------------------|
D|------------------------------------------|------------------------------------------|
A|------------------------------------------|------------------------------------------|
E|------------------------------------------|------------------------------------------|

BRIDGE:
E E DH W W W W W W W
E|--15-15--------------|-----|-----|-----|-----|-----|-----|-----|
B|---------------------|-----|-----|-----|-----|-----|-----|-----|
G|---------------------|-----|-----|-----|-----|-----|-----|-----|
D|---------------------|-----|-----|-----|-----|-----|-----|-----|
A|---------------------|-----|-----|-----|-----|-----|-----|-----|
E|---------------------|-----|-----|-----|-----|-----|-----|-----|

Q Q Q Q Q Q Q Q
E|--------------------------|--------------------------|
B|--6-----6-----6-----6-----|--8-----10----8-----6-----|
G|--------------------------|--------------------------|
D|--------------------------|--------------------------|
A|--------------------------|--------------------------|
E|--------------------------|--------------------------|

Q Q Q Q Q Q Q Q
E|--------------------------|--------------------------|
B|--6-----6-----6----6------|--8-----10-----8----6-----|
G|--------------------------|--------------------------|
D|--------------------------|--------------------------|
A|--------------------------|--------------------------|
E|--------------------------|--------------------------|

Q Q Q Q Q Q Q Q
E|--------------------------|--------------------------|
B|--6-----6-----6-----6-----|--6-----5-----3-----5-----|
G|--------------------------|--------------------------|
D|--------------------------|--------------------------|
A|--------------------------|--------------------------|
E|--------------------------|--------------------------|

Q Q Q Q Q Q Q Q
E|--------------------------|--------------------------|
B|--6-----------------------|--8-----10----8-----------|
G|--------9-----7-----9-----|--------------------10----|
D|--------------------------|--------------------------|
A|--------------------------|--------------------------|
E|--------------------------|--------------------------|

BRIDGE (CONTINUED):
E E E E E E E E E E E E E E E E
E|--------------------------|--------------------------|
B|--------------------------|--------------------------|
G|--17-17-17-17-17-17-17-17-|--17-17-17-17-14-14-12-12-|
D|--X--X--X--X--X--X--X--X--|--X--X--X--X--X--X--X--X--|
A|--15-15-15-15-15-15-15-15-|--15-15-15-15-12-12-10-10-|
E|--------------------------|--------------------------|

E E E E E E E E E E E E E E E E
E|--------------------------|--------------------------|
B|--------------------------|--------------------------|
G|--10-10-10-10-10-10-10-10-|--10-10-10-10-12-14-12-10-|
D|--X--X--X--X--X--X--X--X--|--X--X--X--X--X--X--X--X--|
A|--8--8--8--8--8--8--8--8--|--8--8--8--8--10-12-10-8--|
E|--------------------------|--------------------------|

E E E E E E E E E E E E E E E E
E|--------------------------|--------------------------|
B|--------------------------|--------------------------|
G|--10-10-10-10-10-10-10-10-|--9--9--9--9--9--9--9--9--|
D|--X--X--X--X--X--X--X--X--|--X--X--X--X--X--X--X--X--|
A|--8--8--8--8--8--8--8--8--|--7--7--7--7--7--7--7--7--|
E|--------------------------|--------------------------|

E E E E E E E E E E E E E E E E
E|--------------------------|--------------------------|
B|--------------------------|--------------------------|
G|--10-10-10-10-10-10-10-10-|--12-12-12-12-10-10-10-10-|
D|--X--X--X--X--X--X--X--X--|--X--X--X--X--X--X--X--X--|
A|--8--8--8--8--8--8--8--8--|--10-10-10-10-8--8--8--8--|
E|--------------------------|--------------------------|

E E E E E E E E E E E E E E E E
E|--------------------------|--------------------------|
B|--------------------------|--------------------------|
G|--17-17-17-17-17-17-17-17-|--17-17-17-17-14-14-12-12-|
D|--X--X--X--X--X--X--X--X--|--X--X--X--X--X--X--X--X--|
A|--15-15-15-15-15-15-15-15-|--15-15-15-15-12-12-10-10-|
E|--------------------------|--------------------------|

E E E E E E E E E E E E E E E E
E|--------------------------|--------------------------|
B|--------------------------|--------------------------|
G|--10-10-10-10-10-10-10-10-|--10-10-10-10-12-14-12-10-|
D|--X--X--X--X--X--X--X--X--|--X--X--X--X--X--X--X--X--|
A|--8--8--8--8--8--8--8--8--|--8--8--8--8--10-12-10-8--|
E|--------------------------|--------------------------|

E E E E E E E E E E E E E E E E
E|--------------------------|--------------------------|
B|--------------------------|--------------------------|
G|--10-10-10-10-10-10-10-10-|--9--9--9--9--9--9--9--9--|
D|--X--X--X--X--X--X--X--X--|--X--X--X--X--X--X--X--X--|
A|--8--8--8--8--8--8--8--8--|--7--7--7--7--7--7--7--7--|
E|--------------------------|--------------------------|

E E E E E E E E E E E E E E E E
E|--------------------------|--------------------------|
B|--------------------------|--------------------------|
G|--10-10-10-10-10-10-10-10-|--12-12-12-12-10-10-10-10-|
D|--X--X--X--X--X--X--X--X--|--X--X--X--X--X--X--X--X--|
A|--8--8--8--8--8--8--8--8--|--10-10-10-10-8--8--8--8--|
E|--------------------------|--------------------------|

OUTRO:
E E E E E E E E E E E E E E E E
E|--------------------------|--------------------------|
B|--13----13----13----13----|--13----13----10-11-10-11-|
G|-----10----10----10----10-|-----10----10-------------|
D|--------------------------|--------------------------|
A|--------------------------|--------------------------|
E|--------------------------|--------------------------|

E E E E E E E E E E E E E E E E
E|--------------------------|--------------------------|
B|--13----13----13----13----|--13----13----10-11-10-11-|
G|-----10----10----10----10-|-----10----10-------------|
D|--------------------------|--------------------------|
A|--------------------------|--------------------------|
E|--------------------------|--------------------------|

E E E E E E E E E E E E E E E E
E|--------------------------|--------------------------|
B|--13----13----13----13----|--13----13----10-11-10-11-|
G|-----10----10----10----10-|-----10----10-------------|
D|--------------------------|--------------------------|
A|--------------------------|--------------------------|
E|--------------------------|--------------------------|

E E E E E E E E E E E E E E E E
E|--------------------------|--------------------------|
B|--13----13----13----13----|--13----13----10-11-10-11-|
G|-----10----10----10----10-|-----10----10-------------|
D|--------------------------|--------------------------|
A|--------------------------|--------------------------|
E|--------------------------|--------------------------|

E E E E E E E E E E E E E E E E
E|--------------------------|--------------------------|
B|--13----13----13----13----|--13----13----10-11-10-11-|
G|-----10----10----10----10-|-----10----10-------------|
D|--------------------------|--------------------------|
A|--------------------------|--------------------------|
E|--------------------------|--------------------------|

E E E E E E E E E E E E E E E E
E|--------------------------|--------------------------|
B|--13----13----13----13----|--13----13----10-11-10-11-|
G|-----10----10----10----10-|-----10----10-------------|
D|--------------------------|--------------------------|
A|--------------------------|--------------------------|
E|--------------------------|--------------------------|

E E E E E E E E E E E E E E E E
E|--------------------------|--------------------------|
B|--13----13----13----13----|--13----13----10-11-10-11-|
G|-----10----10----10----10-|-----10----10-------------|
D|--------------------------|--------------------------|
A|--------------------------|--------------------------|
E|--------------------------|--------------------------|

E E E E E E E E E E E E E E E E
E|--------------------------|--------------------------|
B|--13----13----13----13----|--13----13----10-11-10-11-|
G|-----10----10----10----10-|-----10----10-------------|
D|--------------------------|--------------------------|
A|--------------------------|--------------------------|
E|--------------------------|--------------------------|

E E E E E E E E E E E E E E E E
E|--------------------------|--------------------------|
B|--13----13----13----13----|--13----13----10-11-10-11-|
G|-----10----10----10----10-|-----10----10-------------|
D|--------------------------|--------------------------|
A|--------------------------|--------------------------|
E|--------------------------|--------------------------|

E E E E E E E E E E E E E E E E
E|--------------------------|--------------------------|
B|--13----13----13----13----|--13----13----10-11-10-11-|
G|-----10----10----10----10-|-----10----10-------------|
D|--------------------------|--------------------------|
A|--------------------------|--------------------------|
E|--------------------------|--------------------------|

E E E E E E E E E E E E E E E E
E|--------------------------|--------------------------|
B|--13----13----13----13----|--13----13----10-11-10-11-|
G|-----10----10----10----10-|-----10----10-------------|
D|--------------------------|--------------------------|
A|--------------------------|--------------------------|
E|--------------------------|--------------------------|

W W
E|-----|-----|
B|-----|-----|
G|-----|-----|
D|-----|-----|
A|-----|-----|
E|-----|-----|
http://www.guitartabcreator.com
Guitar Tab Creator is intended to store guitar tab created through the tool. It currently does not support in-line text editing. Any text you place in here will be lost. If you need to comment on your tab, please use the "Tab Notes" section located below.