Crash Land- Twin Atlantic

(/) Slide Up  (\) Slide Down  (h) Hammer On  (p) Pull Off  (b) Bend (r) Release (v) Vibrato


E|--------
B|-----3--
G|--2-----
D|--------
A|--------
E|--------



E|-----------
B|-----3-----
G|--2--------
D|-----------
A|-----------
E|--------3--



E|-----------
B|--------7--
G|-----7-----
D|-----------
A|-----------
E|--7--------



E|-----------
B|--------5--
G|-----6-----
D|-----------
A|-----------
E|--5--------
http://www.guitartabcreator.com
Guitar Tab Creator is intended to store guitar tab created through the tool. It currently does not support in-line text editing. Any text you place in here will be lost. If you need to comment on your tab, please use the "Tab Notes" section located below.