Kiss You Girl

(/) Slide Up  (\) Slide Down  (h) Hammer On  (p) Pull Off  (b) Bend (r) Release (v) Vibrato

Tuning:C G C G G C KISS YOU GIRL
Capo: 4th Capo Brian George

Lyrics are at the bottom. Watch the video of this on youtube @briangeorgemusic for
the strumming pattern. Enjoy!


Intro:
C|-------------------------------------------------------------------------------------|
G|-------------------------------------------------------------------------------------|
C|--4h5-----------4h5-----------5/7----------7-------------4h5-----------4h5-----------|
G|-----------0-------------0------------0-------------0-------------0-------------0----|
G|-----0-------------0-------------0------------0-------------0-------------0----------|
C|--0-----0-------0-----0-------0----0-------0-----0-------0-----0-------0-----0-------|

C|-------------------------------------------------------------------------------------|
G|------------------------------------------------------------------------5------------|
C|--0-------------0-------------7-------------5-------------4----------------------0---|
G|-----------0-------------0-------------0-------------0-------------0-------0---------|
G|-----0-------------0-------------0-------------0-------------0----------0-----0------|
C|--0-----0-------0-----0-------0-----0-------0-----0-------0-----0--------------------|
Verse:
C|------------------------------5-------------4-------------0-------------5------------|
G|--4-------------2----------------------0-------------0-------------0-------------0---|
C|-----------0-------------0-------0-------------0-------------0-------------0---------|
G|-----0-------------0----------0-----0-------0-----0-------0-----0-------0-----0------|
G|--0-----0-------0-----0--------------------------------------------------------------|
C|-------------------------------------------------------------------------------------|
"Well you've got a good soul..."
C|--4-------------0-------------| |--5--4----5--5--5--5----0--0-|
G|-----------0-------------0----| |----------5--5--5--5----0--0-|
C|-----0-------------0----------| Repeat the 5 4 0 for |----------5--5--5--5----0--0-|
G|--0-----0-------0-----0-------| every verse then play:|------------------------0--0-|
G|------------------------------| (Watch video for stum |------------------------0--0-|
C|------------------------------| pattern) |------------------------0--0-|

C|---0---2----0---0---0---2-----| |------------0--0--0--5--4--0--|
G|---0---0----0---0---0---0-----| |------------5--4--2--0--0--0--|
C|---0---2----0---0---0---2-----| Play that for verse 3 |---7--5--4--0--0--0--0--0--0--|
G|---0---0----0---0---0---0-----| then play: |---0--0--0--0--0--0--0--0--0--|
G|---0--------0---0---0---------| |---0--0--0--0--0--0--0--0--0--|
C|---0--------0---0---0---------| |---0--0--0--0--0--0--0--0--0--|
Palm mute: "And I will be your man"
C|--5--5--5--5----4--4--4--4----0--0--0--0------------------------5------2--------------|
G|--5--5--5--5----4--4--4--4----0--0--0--0-- Repeat for ----------5------0--------------|
C|--5--5--5--5----4--4--4--4----0--0--0--0-- verse 4... ----------5------2----2/4-------|
G|----------------------------------------------------------------------------0-0-------|
G|----------------------------------------------------------------------------0-0-------|
C|----------------------------------------------------------------------------2/4-------|


LYRICS:

Well I just want to kiss you girl
And I just want to hold your hand
I want to make you mine
Yeah thats my plan
Oh thats my plan

I just want to fall asleep
Wake up with you next to me
Your flowing hair
You'd look so pretty lying there
You'd look so pretty lying there

Well you've got a good soul
And mine it was almost sold
But you could still save me
Before it grows too old

Im gonna kiss you girl
And Im gonna hold your hand
I will make you mine
And I will be your man
Guitar Tab Creator is intended to store guitar tab created through the tool. It currently does not support in-line text editing. Any text you place in here will be lost. If you need to comment on your tab, please use the "Tab Notes" section located below.