Naruto Raising fighting spirit

(/) Slide Up  (\) Slide Down  (h) Hammer On  (p) Pull Off  (b) Bend (r) Release (v) Vibrato

E|-----------------------------------------------------------
B|-----------------------------------------------------3-----
G|-----------------------------------------------------2--2--
D|-----------------------------------------------------0--2--
A|-----------------2--0-----0-----------------------------0--
E|--0--0--3--2--0--------3-----3--2--0--0--0--3--2--0--------



E|-----------------------------------------------------------------
B|-----------------------------------------------------------------
G|-----------------------------------------------------5--5--4--4--
D|-----------------------------------------------------5--5--4--4--
A|-----------------2--0-----0--------------------------3--3--2--2--
E|--0--0--3--2--0--------3-----3--2--0--0--0--3--2--0--------------



E|-----------------------------------------------------------
B|-----------------------------------------------------3-----
G|-----------------------------------------------------2--2--
D|-----------------------------------------------------0--2--
A|-----------------2--0-----0-----------------------------0--
E|--0--0--3--2--0--------3-----3--2--0--0--0--3--2--0--------



E|-----------------------------------------------------------------
B|-----------------------------------------------------------------
G|-----------------------------------------------------5--5--4--4--
D|-----------------------------------------------------5--5--4--4--
A|-----------------2--0-----0--------------------------3--3--2--2--
E|--0--0--3--2--0--------3-----3--2--0--0--0--3--2--0--------------



E|-----------0-----------0-----2-----3-----------2-----
B|--------0-----------0-----------------------0-----3--
G|-----0-----------0--------0-----0--------0--------2--
D|--------------------------------------------------0--
A|-----------------------------------------------------
E|--0-----------0-----------------------0--------------



E|--0-----------0-----2-----3-----------5-----------5-----------
B|--0--------0-----------------------3-----------3-----------3--
G|--0-----0--------0-----0--------2-----------2-----------2-----
D|-----------------------------0-----------0-----------0--------
A|--------------------------------------------------------------
E|--0--0--------------------------------------------------------



E|--8--------8--8--10--12--10--8h10p8------8--7------------------
B|--8-----8-----8----------------------10------------------------
G|--9--9--------9----------0-------------------------5--5--4--4--
D|---------------------------------------------------5--5--4--4--
A|---------------------------------------------------3--3--2--2--
E|--8-----------8------------------------------------------------
http://www.guitartabcreator.com
Guitar Tab Creator is intended to store guitar tab created through the tool. It currently does not support in-line text editing. Any text you place in here will be lost. If you need to comment on your tab, please use the "Tab Notes" section located below.