Fingering Exercises (3rd and 4th fingers)

(/) Slide Up  (\) Slide Down  (h) Hammer On  (p) Pull Off  (b) Bend (r) Release (v) Vibrato

E|--------------------------------3--4--5--4--------------------------------
B|--------------------------3--4--------------5--4--------------------------
G|--------------------3--4--------------------------5--4--------------------
D|--------------3--4--------------------------------------5--4--------------
A|--------3--4--------------------------------------------------5--4--------
E|--3--4--------------------------------------------------------------5--4--



E|--------------------------------5--6--7--6--------------------------------
B|--------------------------5--6--------------7--6--------------------------
G|--------------------5--6--------------------------7--6--------------------
D|--------------5--6--------------------------------------7--6--------------
A|--------5--6--------------------------------------------------7--6--------
E|--5--6--------------------------------------------------------------7--6--



E|--------------------------------7--8--9--8--------------------------------
B|--------------------------7--8--------------9--8--------------------------
G|--------------------7--8--------------------------9--8--------------------
D|--------------7--8--------------------------------------9--8--------------
A|--------7--8--------------------------------------------------9--8--------
E|--7--8--------------------------------------------------------------9--8--



E|-------------------------------------9--10--11--10------------------------------------------
B|------------------------------9--10-----------------11--10----------------------------------
G|-----------------------9--10--------------------------------11--10--------------------------
D|----------------9--10-----------------------------------------------11--10------------------
A|---------9--10--------------------------------------------------------------11--10----------
E|--9--10-----------------------------------------------------------------------------11--10--



E|------------------------------------------11--12--13--12------------------------------------------
B|----------------------------------11--12------------------13--12----------------------------------
G|--------------------------11--12----------------------------------13--12--------------------------
D|------------------11--12--------------------------------------------------13--12------------------
A|----------11--12------------------------------------------------------------------13--12----------
E|--11--12----------------------------------------------------------------------------------13--12--



E|--------
B|--------
G|--------
D|--------
A|--------
E|--------
http://www.guitartabcreator.com
Guitar Tab Creator is intended to store guitar tab created through the tool. It currently does not support in-line text editing. Any text you place in here will be lost. If you need to comment on your tab, please use the "Tab Notes" section located below.