Fingering Exercises (2nd and 3rd fingers)

(/) Slide Up  (\) Slide Down  (h) Hammer On  (p) Pull Off  (b) Bend (r) Release (v) Vibrato

E|--------------------------------2--3--4--3--------------------------------
B|--------------------------2--3--------------4--3--------------------------
G|--------------------2--3--------------------------4--3--------------------
D|--------------2--3--------------------------------------4--3--------------
A|--------2--3--------------------------------------------------4--3--------
E|--2--3--------------------------------------------------------------4--3--



E|--------------------------------4--5--6--5--------------------------------
B|--------------------------4--5--------------6--5--------------------------
G|--------------------4--5--------------------------6--5--------------------
D|--------------4--5--------------------------------------6--5--------------
A|--------4--5--------------------------------------------------6--5--------
E|--4--5--------------------------------------------------------------6--5--



E|--------------------------------6--7--8--7--------------------------------
B|--------------------------6--7--------------8--7--------------------------
G|--------------------6--7--------------------------8--7--------------------
D|--------------6--7--------------------------------------8--7--------------
A|--------6--7--------------------------------------------------8--7--------
E|--6--7--------------------------------------------------------------8--7--



E|--------------------------------8--9--10--9-------------------------------------
B|--------------------------8--9---------------10--9------------------------------
G|--------------------8--9----------------------------10--9-----------------------
D|--------------8--9-----------------------------------------10--9----------------
A|--------8--9------------------------------------------------------10--9---------
E|--8--9-------------------------------------------------------------------10--9--



E|------------------------------------------10--11--12--11------------------------------------------
B|----------------------------------10--11------------------12--11----------------------------------
G|--------------------------10--11----------------------------------12--11--------------------------
D|------------------10--11--------------------------------------------------12--11------------------
A|----------10--11------------------------------------------------------------------12--11----------
E|--10--11----------------------------------------------------------------------------------12--11--



E|--------
B|--------
G|--------
D|--------
A|--------
E|--------
http://www.guitartabcreator.com
Guitar Tab Creator is intended to store guitar tab created through the tool. It currently does not support in-line text editing. Any text you place in here will be lost. If you need to comment on your tab, please use the "Tab Notes" section located below.