Fingering Exercises (1st and 4th fingers)

(/) Slide Up  (\) Slide Down  (h) Hammer On  (p) Pull Off  (b) Bend (r) Release (v) Vibrato

E|--------------------------------1--4--5--2--------------------------------
B|--------------------------1--4--------------5--2--------------------------
G|--------------------1--4--------------------------5--2--------------------
D|--------------1--4--------------------------------------5--2--------------
A|--------1--4--------------------------------------------------5--2--------
E|--1--4--------------------------------------------------------------5--2--



E|--------------------------------3--6--7--4--------------------------------
B|--------------------------3--6--------------7--4--------------------------
G|--------------------3--6--------------------------7--4--------------------
D|--------------3--6--------------------------------------7--4--------------
A|--------3--6--------------------------------------------------7--4--------
E|--3--6--------------------------------------------------------------7--4--



E|--------------------------------5--8--9--6--------------------------------
B|--------------------------5--8--------------9--6--------------------------
G|--------------------5--8--------------------------9--6--------------------
D|--------------5--8--------------------------------------9--6--------------
A|--------5--8--------------------------------------------------9--6--------
E|--5--8--------------------------------------------------------------9--6--



E|-------------------------------------7--10--11--8-------------------------------------
B|------------------------------7--10----------------11--8------------------------------
G|-----------------------7--10------------------------------11--8-----------------------
D|----------------7--10--------------------------------------------11--8----------------
A|---------7--10----------------------------------------------------------11--8---------
E|--7--10------------------------------------------------------------------------11--8--



E|-------------------------------------9--12--13--10------------------------------------------
B|------------------------------9--12-----------------13--10----------------------------------
G|-----------------------9--12--------------------------------13--10--------------------------
D|----------------9--12-----------------------------------------------13--10------------------
A|---------9--12--------------------------------------------------------------13--10----------
E|--9--12-----------------------------------------------------------------------------13--10--



E|--------
B|--------
G|--------
D|--------
A|--------
E|--------
http://www.guitartabcreator.com
Guitar Tab Creator is intended to store guitar tab created through the tool. It currently does not support in-line text editing. Any text you place in here will be lost. If you need to comment on your tab, please use the "Tab Notes" section located below.