Fingering Exercises (1st and 3rd fingers)

(/) Slide Up  (\) Slide Down  (h) Hammer On  (p) Pull Off  (b) Bend (r) Release (v) Vibrato

E|--------------------------------1--3--4--2--------------------------------
B|--------------------------1--3--------------4--2--------------------------
G|--------------------1--3--------------------------4--2--------------------
D|--------------1--3--------------------------------------4--2--------------
A|--------1--3--------------------------------------------------4--2--------
E|--1--3--------------------------------------------------------------4--2--



E|--------------------------------3--5--6--4--------------------------------
B|--------------------------3--5--------------6--4--------------------------
G|--------------------3--5--------------------------6--4--------------------
D|--------------3--5--------------------------------------6--4--------------
A|--------3--5--------------------------------------------------6--4--------
E|--3--5--------------------------------------------------------------6--4--



E|--------------------------------5--7--8--6--------------------------------
B|--------------------------5--7--------------8--6--------------------------
G|--------------------5--7--------------------------8--6--------------------
D|--------------5--7--------------------------------------8--6--------------
A|--------5--7--------------------------------------------------8--6--------
E|--5--7--------------------------------------------------------------8--6--



E|--------------------------------7--9--10--8-------------------------------------
B|--------------------------7--9---------------10--8------------------------------
G|--------------------7--9----------------------------10--8-----------------------
D|--------------7--9-----------------------------------------10--8----------------
A|--------7--9------------------------------------------------------10--8---------
E|--7--9-------------------------------------------------------------------10--8--



E|-------------------------------------9--11--12--10------------------------------------------
B|------------------------------9--11-----------------12--10----------------------------------
G|-----------------------9--11--------------------------------12--10--------------------------
D|----------------9--11-----------------------------------------------12--10------------------
A|---------9--11--------------------------------------------------------------12--10----------
E|--9--11-----------------------------------------------------------------------------12--10--



E|--------
B|--------
G|--------
D|--------
A|--------
E|--------
http://www.guitartabcreator.com
Guitar Tab Creator is intended to store guitar tab created through the tool. It currently does not support in-line text editing. Any text you place in here will be lost. If you need to comment on your tab, please use the "Tab Notes" section located below.