which key?

(/) Slide Up  (\) Slide Down  (h) Hammer On  (p) Pull Off  (b) Bend (r) Release (v) Vibrato


E|-------------------------------------------------------|--
B|-------------------------------------------------------|--
G|-------------------------------------------------------|--
D|-------------------------------------------------------|--
A|-----------------------------------------------11------|--
E|--10--0--0--10h12--0--0--10--10h12--0--10--12------12--|--



E|------------------------------------------------
B|------------------------------------------------
G|------------------------------------------------
D|--7--------7/9--------7-----7/9-----------------
A|--5--------5-7--------5-----5-7-----6--6--6--6--
E|-----0--0-------0--0-----0-------0--4--4--4--4--



E|--
B|--
G|--
D|--
A|--
E|--



E|--
B|--
G|--
D|--
A|--
E|--



E|--
B|--
G|--
D|--
A|--
E|--
http://www.guitartabcreator.com
Guitar Tab Creator is intended to store guitar tab created through the tool. It currently does not support in-line text editing. Any text you place in here will be lost. If you need to comment on your tab, please use the "Tab Notes" section located below.