velvet

(/) Slide Up  (\) Slide Down  (h) Hammer On  (p) Pull Off  (b) Bend (r) Release (v) Vibrato


E|---------------------------------------------------------------------------------------------------
B|---------------------------------------------------------------------------------------------------
G|---------------------------------------------------------------------------------------------------
D|---------------------------------------------------------------------------------------------------
A|---------------------------------------------------------------------------------------------------
E|--3--5--3b--0--0--0--3--5--3b--0--0--0--3--5--3b--0--0--0--3--5--3b--0--0--0--3--5--6--6--6--6-----



E|-------------------------------------------------------------------|--
B|-------------------------------------------------------------------|--
G|-------------------------------------------------------------------|--
D|-------------------------------------------------------------------|--
A|-------------------------------------------------------------------|--
E|--6--6--6--6--6--6--6--6--5--5--5--3b--0--0--0--3--5--3b--0--0--0--|--



E|--------------------------------------------------------------------------------------------------
B|--------------------------------------------------------------------------------------------------
G|--------------------------------------------------------------------------------------------------
D|--5--7--5------2--2--2--5--7--5------2--2--2--5--7------------------------------------------------
A|--5--7--5------2--2--2--5--7--5------2--2--2--5--7--8--8--8--8--8--8--8--8--8--8--7---------------
E|--3--5--3b--0--0--0--0--3--5--3b--0--0--0--0--3--5--6--6--6--6-----6--6--6-----6-----6--5h6p5-----



E|-----------------------------------|--
B|-----------------------------------|--
G|-----------------------------------|--
D|---------------5--7--5-------------|--
A|---------------5--7--5-------------|--
E|--3b--0--0--0--3--5--3----0--0--0--|--
http://www.guitartabcreator.com
Guitar Tab Creator is intended to store guitar tab created through the tool. It currently does not support in-line text editing. Any text you place in here will be lost. If you need to comment on your tab, please use the "Tab Notes" section located below.