rock n roll

(/) Slide Up  (\) Slide Down  (h) Hammer On  (p) Pull Off  (b) Bend (r) Release (v) Vibrato


E|--------------------------------------------------------------------------------------------------
B|--------------------------------------------------------------------------------------------------
G|--------------------------------------------------------------------------------------------------
D|--------------7--------------------7--------------------7--------------------7--------------------
A|--------------5--------------------5--------------------5--------------------5--------------------
E|--0--3--4--0-----0--5--0--3--4--0-----0--5--0--3--4--0-----0--5--0--3--4--0-----0--5--0--3--4--0--



E|--------------------------------------------------
B|--------------------------------------------------
G|--------------------------------------------------
D|-----------------------------------------------7--
A|--7-8-----7-------------7-8-----7--------------5--
E|--5/6--0--5--0--3h5--0--5/6--0--5--0--3--4--0-----
http://www.guitartabcreator.com
Guitar Tab Creator is intended to store guitar tab created through the tool. It currently does not support in-line text editing. Any text you place in here will be lost. If you need to comment on your tab, please use the "Tab Notes" section located below.