power

(/) Slide Up  (\) Slide Down  (h) Hammer On  (p) Pull Off  (b) Bend (r) Release (v) Vibrato


E|---------------------------------|--
B|---------------------------------|--
G|-----------4--------------2------|--
D|--4-----4--4-----4-----4--2------|--
A|--4-----4--2-----4-----4--0------|--
E|--2--0--2-----0--2--0--2---------|--



E|-------------------------------------------------------------------|--
B|-------------------------------------------------------------------|--
G|-----------------------------------4--------------2----------------|--
D|--4--4--4--4--2--2--2--2--4-----4--4-----4-----4--2----------2-----|--
A|--4--4--4--4--2--2--2--2--4-----4--2-----4-----4--0-----2h4--------|--
E|--2--2--2--2--0--0--0--0--2--0--2-----0--2--0--2-----0----------0--|--
http://www.guitartabcreator.com
Guitar Tab Creator is intended to store guitar tab created through the tool. It currently does not support in-line text editing. Any text you place in here will be lost. If you need to comment on your tab, please use the "Tab Notes" section located below.