picky

(/) Slide Up  (\) Slide Down  (h) Hammer On  (p) Pull Off  (b) Bend (r) Release (v) Vibrato

E|-------------------------------------------------------------------------------------------------
B|--5-----5p4---------------------4-----5--4--------2--------------2-----3p2-----------------------
G|--6----------6--6-----6---------4-----------4-----2--------------2-------------1--------------4--
D|--6--6----------6--------6/7----4--4--------------4--4-----4-----2-------------2--2--2--0-----4--
A|--4--4----------0--0------------2--2--------------4--4-----4-----0--0-------0--2--2--------0--2--
E|-----------------------------------------------0--2--2--0--2--0----------------0--0--------------



E|--------------0-----------------------------0-----------|--
B|--------------3-----3-----------------------3--3--------|--
G|--4-----4-----2--2-----2-----4--4-----4-----2-----4-----|--
D|--4-----4-----0--0--------0--4--4-----4-----0--------0--|--
A|--2--0--2--0-----------------2--2--0--2--0--------------|--
E|--------------------------------------------------------|--



E|--2-----2--2-----0--------0--0------------------------------------------------------------------|-----
B|--2-----2--2-----0--------0--0--4--------5--4-----2--2-----2h3p2--0-----------------------------|-----
G|--2-----2--2-----1--------1--0--4--4--4--------0--2--2------------------------------------------|-----
D|--4--4--4--4--4--2--------------4--4--4-----------2--2------------------7--7--7--7--5--5--5--5--|-----
A|--4--4--------4--2--2--2--------2--2--------------0--0--0------------0--7--7--7--7--5--5--5--5--|-----
E|--2--2--------2--0--0--0------------------------------------------------5--5--5--5--3--3--3--3--|-----
http://www.guitartabcreator.com
Guitar Tab Creator is intended to store guitar tab created through the tool. It currently does not support in-line text editing. Any text you place in here will be lost. If you need to comment on your tab, please use the "Tab Notes" section located below.