oi loik vat one i does

(/) Slide Up  (\) Slide Down  (h) Hammer On  (p) Pull Off  (b) Bend (r) Release (v) Vibrato

E|-----------------------------------|--
B|-----------------------------------|--
G|-----------------------------------|--
D|----------4------------------------|--
A|-------------4----------0h2--0-----|--
E|--0h2--2------------------------0--|--



E|--------------------------------------|--
B|--------------------------------------|--
G|--------------------------------------|--
D|-------------4-----2b-----------------|--
A|----------------4----4--2--0h2--0-----|--
E|--0h2--2--2------------------------0--|--



E|-------------------------------------------------------------------|--
B|-------------------------------------------------------------------|--
G|-------------------------------------------------------------------|--
D|-------------------------------------------------------------------|--
A|---------------------------------0h2--2--2--------------0h2--0-----|--
E|--0h2--2--2--2--5--5--5--5--2h5-------------3--0--0--0----------0--|--



E|------------------------------------------------------------------------------|--
B|------------------------------------------------------------------------------|--
G|------------------------------------------------------------------------------|--
D|--4--4--4--4--4--4--4-7--7--7--7--7--7--7--7-9--9--9--9--9--2-----------------|--
A|--4--4--4--4--4--4--4-7--7--7--7--7--7--7--7-9--9--9--9--9--2------0h2--0-----|--
E|--2--2--2--2--2--2--2/5--5--5--5--5--5--5--5/7--7--7--7--7--0--------------0--|--



E|----------------------------|--
B|----------------------------|--
G|----------------------------|--
D|--7--7--7-9--9--9--9--2--2--|--
A|--7--7--7-9--9--9--9--2--2--|--
E|--5--5--5/7--7--7--7--0--0--|--



E|-----------------------------------------|--
B|-----------------------------------------|--
G|-----------------------------------------|--
D|-----------------------------------------|--
A|-----------------------------------------|--
E|--0--3p0--3h5--5--5--5/7--7--7--7--3--0--|--
http://www.guitartabcreator.com
Guitar Tab Creator is intended to store guitar tab created through the tool. It currently does not support in-line text editing. Any text you place in here will be lost. If you need to comment on your tab, please use the "Tab Notes" section located below.