maybe a baseline?

(/) Slide Up  (\) Slide Down  (h) Hammer On  (p) Pull Off  (b) Bend (r) Release (v) Vibrato


E|----------------------|--------|----------------------|--------|----------------------|--------|--
B|----------------------|--------|----------------------|--------|----------------------|--------|--
G|----------------------|--------|----------------------|--------|----------------------|--------|--
D|----------------------|--------|----------------------|--------|----------------------|--------|--
A|----------------2--2--|--------|----------------0--0--|--------|----------------2--2--|--------|--
E|--0h2--2--2--2--------|--------|--0h2--2--2--2--------|--------|--0h2--2--2--2--------|--------|--



E|----------------------|--------|----------------------|--------|----------------------|--------|--
B|----------------------|--------|----------------------|--------|----------------------|--------|--
G|----------------------|--------|----------------------|--------|----------------------|--------|--
D|----------------------|--------|----------------------|--------|----------------------|--------|--
A|----------------5--5--|--------|----------------2--2--|--------|----------------2--2--|--------|--
E|--2/3--3--3--3--------|--------|--0h2--2--2--2--------|--------|--0h2--2--2--2--------|--------|--



E|----------------------|--------|----------------------|--------|------------------------------------
B|----------------------|--------|----------------------|--------|------------------------------------
G|----------------------|--------|----------------------|--------|------------------------------------
D|----------------------|--------|----------------------|--------|------------------------------------
A|----------------5--5--|--------|----------------7--7--|--------|----------------8--8----------------
E|--2/3--3--3--3--------|--------|--3/5--5--5--5--------|--------|--5/6--6--6--6--------6/8--8--8--8--



E|----------|--
B|----------|--
G|----------|--
D|----------|--
A|--10--10--|--
E|----------|--
http://www.guitartabcreator.com
Guitar Tab Creator is intended to store guitar tab created through the tool. It currently does not support in-line text editing. Any text you place in here will be lost. If you need to comment on your tab, please use the "Tab Notes" section located below.