classic rock

(/) Slide Up  (\) Slide Down  (h) Hammer On  (p) Pull Off  (b) Bend (r) Release (v) Vibrato


E|--------------------------------------------------|--
B|--------------------------------------------------|--
G|--3---------------------------------5------3------|--
D|--3------0------------3------0------5------3------|--
A|--1------2------------3------2------3------1------|--
E|---------3------------1------3--------------------|--



E|---------------------------------------------------|-----
B|---------------------------------------------------|-----
G|--3----------------------------------5-----3--3----|-----
D|--3-----3--0--0----------3-----0--0--5--5--3--3----|-----
A|--1--0--3--2--2----------3-----2--2--3--3--1--1----|-----
E|--------1--3--3----------1--1--3--3----------------|-----
http://www.guitartabcreator.com
Guitar Tab Creator is intended to store guitar tab created through the tool. It currently does not support in-line text editing. Any text you place in here will be lost. If you need to comment on your tab, please use the "Tab Notes" section located below.