another drunk friday pt2

(/) Slide Up  (\) Slide Down  (h) Hammer On  (p) Pull Off  (b) Bend (r) Release (v) Vibrato


E|-----------------------------------------------------------|-----------------------------------
B|-----------------------------------------------------------|-----------------------------------
G|-----------------------------------------------------------|-----------------------------------
D|--------------------------------------0--------0-----------|-----------------------------------
A|--7--7--7-----7--5--5--5--4--4--4--------4--------4-----4--|--7--7--7-----7--5--5--5--4--4-----
E|--8--8--8--8-----7--7--7--5--5--5--5--------5--------5-----|--8--8--8--8-----7--7--7--5--5-----



E|--------------------------|---------------------------------------------------|-----------
B|--------------------------|---------------------------------------------------|-----------
G|--------------------------|---------------------------------------------------|-----------
D|--------------------------|---------------------------------------------------|-----------
A|-----4-----5-----7-----5--|--7--7--7-----7--5--5--5--4----4--4--4--2----2--2--|--7--7--7--
E|--5-----5-----5-----5-----|--8--8--8--8-----7--7--7--5----5--5--5--3----3--3--|--8--8--8--



E|----------------------------------------------------|----------------------------
B|----------------------------------------------------|----------------------------
G|----------------------------------------------------|----------------------------
D|----------------------------------------------------|--8--------------10---------
A|-----7--5--5--5--4----------4--4--4--4--4--4--4--4--|--8--------------10---------
E|--8-----7--7--7--5----------5--5--5--5--5--5--5--5--|--6--------------8----------



E|---------------------------------------------------------------------------------
B|---------------------------------------------------------------------------------
G|-------------------------------------------------------------7-------------------
D|--7--------------8------------8--------------10--------------7--------------7----
A|--7--------------8------------8--------------10--------------5--------------7----
E|--5--------------6------------6--------------8------------------------------5----



E|------------------------------------------------------------------|--
B|------------------------------------------------------------------|--
G|-------------------------------7----------------------------------|--
D|--8--------------10------------7----------------------------------|--
A|--8--------------10------------5----------------------------------|--
E|--6--------------8------------------------------------------------|--
http://www.guitartabcreator.com
Guitar Tab Creator is intended to store guitar tab created through the tool. It currently does not support in-line text editing. Any text you place in here will be lost. If you need to comment on your tab, please use the "Tab Notes" section located below.