another drunk friday

(/) Slide Up  (\) Slide Down  (h) Hammer On  (p) Pull Off  (b) Bend (r) Release (v) Vibrato


E|--------------------------------------------------------------------------------------------------
B|--------------------------------------------------------------------------------------------------
G|--4p2-----------4p2-----------2-----2--4p2-----------4p2-----------5-----2--4p2--0--0--0--4p2-----
D|-------0--0--0-------0--0--0-----0----------3--3--3-------3--3--3-----3---------------------------
A|--------------------------------------------------------------------------------------------------
E|--------------------------------------------------------------------------------------------------



E|---------------------------------------------------------|--
B|---------------------------------------------------------|--
G|--0--0-----4-----2--4p2-----------4p2-----------2-----4--|--
D|--------5-----3----------0--0--0-------0--0--3-----5-----|--
A|---------------------------------------------------------|--
E|---------------------------------------------------------|--
http://www.guitartabcreator.com
Guitar Tab Creator is intended to store guitar tab created through the tool. It currently does not support in-line text editing. Any text you place in here will be lost. If you need to comment on your tab, please use the "Tab Notes" section located below.