T Hat S o NG

(/) Slide Up  (\) Slide Down  (h) Hammer On  (p) Pull Off  (b) Bend (r) Release (v) Vibrato

E|----------14--14----------14--14----------
B|------14------14------14------14----------
G|--12--------------12--------------14--12--
D|------------------------------------------
A|------------------------------------------
E|------------------------------------------



E|-----------------------------------------------
B|-----------------------------------------------
G|-5-----5-----5---7-----7-----7---9-----9-----9-
D|-5-----5-----5---7-----7-----7---9-----9-----9-
A|-3-3-3-3-3-3-3-3-5-5-5-5-5-5-5-5-7-7-7-7-7-7-7-
E|-----------------------------------------------



E|--8--10--12--
B|--8--10--12--
G|--5--7---9---
D|--5--7---9---
A|-------------
E|-------------
http://www.guitartabcreator.com
Guitar Tab Creator is intended to store guitar tab created through the tool. It currently does not support in-line text editing. Any text you place in here will be lost. If you need to comment on your tab, please use the "Tab Notes" section located below.