While My Guitar Gently Weeps (Prince Solo)

(/) Slide Up  (\) Slide Down  (h) Hammer On  (p) Pull Off  (b) Bend (r) Release (v) Vibrato


E|----------------------------------------------------------------------------------------------------
B|------------------------------------------------5--------------------------15(b)-15(b)-15(b)-15(b)--
G|-------4(5)-----4(5)------4(5)-8(b)-7(\)5----------5-2(/)4------------------------------------------
D|--6(7)------7---------7---------------------7----------------7-5-(7~)-5~----------------------------
A|----------------------------------------------------------------------------------------------------
E|----------------------------------------------------------------------------------------------------

E|----------------------------------------------------------------------------------------------------
B|--15(b)-15(b)-15(b)-13-15(b)-13(\)10~---------------------------------------------------------------
G|---------------------------------------14(16)-14(16)-14(17)b-14~-16(17)16(r)-14~--------------------
D|----------------------------------------------------------------------------------------------------
A|----------------------------------------------------------------------------------------------------
E|----------------------------------------------------------------------------------------------------

E|-----------------------------------------------------------------------------------------
B|--7(b)-5-57(h)8(h)-57(h)8(h)-57(h)8(h)-57(h)8(h)-9~(b)--10-8-----------------------------
G|-------------------------------------------------------------9-7-5-----------------------
D|-------------------------------------------------------------------7---5------------35(r)
A|-----------------------------------------------------------------------5-------35(r)-----
E|-----------------------------------------------------------------------3--35(r)----------
Guitar Tab Creator is intended to store guitar tab created through the tool. It currently does not support in-line text editing. Any text you place in here will be lost. If you need to comment on your tab, please use the "Tab Notes" section located below.