Riff for ryan

(/) Slide Up  (\) Slide Down  (h) Hammer On  (p) Pull Off  (b) Bend (r) Release (v) Vibrato

Stave 1:

E|-------------------------------
B|-------------------------------
G|-------------------------------
D|----------------------8-----8--
A|-----7-----7-----5/8-----8-----
E|--5-----5-----3----------------

Stave 2:

E|--------------------------------
B|--------------------------------
G|--------------------------------
D|--------------------------------
A|-----7-----7-----5-----3-----3--
E|--5-----5-----3-----1-----1-----

Stave 3:

E|----------------------------------------------------
B|----------------------------------------------------
G|----------------------------------------------------
D|--7--7--7----7--7--7----7--7----5----5/8------8--8--
A|--7--7--7----7--7--7----7--7----5----5-8------8--8--
E|--5--5--5----5--5--5----5--5----3----3--------------

Stave 4:

E|--------------------------------------------------
B|--------------------------------------------------
G|--------------------------------------------------
D|--7----7----7----7----7------5----5----3----3--3--
A|--7----7----7----7----7------5----5----3----3--3--
E|--5----5----5----5----5------3----3----1----1--1--

http://www.guitartabcreator.com
Guitar Tab Creator is intended to store guitar tab created through the tool. It currently does not support in-line text editing. Any text you place in here will be lost. If you need to comment on your tab, please use the "Tab Notes" section located below.