Life is a Highway-Prechorus & Bridge

(/) Slide Up  (\) Slide Down  (h) Hammer On  (p) Pull Off  (b) Bend (r) Release (v) Vibrato

(W|WW) Whole (H|HH) Half (Q|QQ) Quarter (E|EE) 8th (S|SS) 16th (T|TT) 32nd (X|XX) 64th

t: W W W W
E|--------------
B|--------------
G|--------------
D|--7--5--3-----
A|--5--3--1--5--
E|-----------3--


t: W W W W
E|--5--1--5--3--
B|--5--1--6--6--
G|--5--3--7--5--
D|--5--3--7--5--
A|--7--1--5--3--
E|--5-----------
http://www.guitartabcreator.com
Guitar Tab Creator is intended to store guitar tab created through the tool. It currently does not support in-line text editing. Any text you place in here will be lost. If you need to comment on your tab, please use the "Tab Notes" section located below.