Lead Guitar

(/) Slide Up  (\) Slide Down  (h) Hammer On  (p) Pull Off  (b) Bend (r) Release (v) Vibrato
E|-----------------------------
B|-----------------------------
G|-----------------------------
D|-----------------------------
A|--4--2--4--7--8--7--5--3--2--
E|--2--0--2--5--6--5--3--1--0--



E|-----------7-----------7-----------7-----------5-----------5-----------5-----------5-----------3--
B|--0--5--0-----0--5--0-----0--5--0-----0--5--0-----0--3--0-----0--3--0-----0--3--0-----0--3--0-----
G|--------------------------------------------------------------------------------------------------
D|--------------------------------------------------------------------------------------------------
A|--------------------------------------------------------------------------------------------------
E|--------------------------------------------------------------------------------------------------



E|-----------3-----------3-----------3-----------2-----------2-----------2-----------2--
B|--0--1--0-----0--1--0-----0--1--0-----0--1--0-----0--1--0-----0--1--0-----0--1--0-----
G|--------------------------------------------------------------------------------------
D|--------------------------------------------------------------------------------------
A|--------------------------------------------------------------------------------------
E|--------------------------------------------------------------------------------------



E|--3--3--3--5--5--5--2--2--2--3--3--3--3--3--3--5--5--5--2--2--2--3--3--3--
B|--5--5--5--7--7--7--4--4--4--5--5--5--5--5--5--7--7--7--4--4--4--5--5--5--
G|--------------------------------------------------------------------------
D|--------------------------------------------------------------------------
A|--------------------------------------------------------------------------
E|--------------------------------------------------------------------------



E|--
B|--
G|--
D|--
A|--
E|--
http://www.guitartabcreator.com
Guitar Tab Creator is intended to store guitar tab created through the tool. It currently does not support in-line text editing. Any text you place in here will be lost. If you need to comment on your tab, please use the "Tab Notes" section located below.