Teens For Planet Earth

(/) Slide Up  (\) Slide Down  (h) Hammer On  (p) Pull Off  (b) Bend (r) Release (v) Vibrato
Teens For Planet Earth

Verse
G|-----------------------------------------------
D|-------------------7--7\-----------------------
A|--3--3r-5--5r-----------3--3r-5--5r------------
E|-------------5--0h5--5--------------5--5r-3--3r

Chorus
G|---------------------------------------------------------------------------------------------
D|---------------------------------------------------------------------------------------------
A|--------------------------------------------------3-3-3-3-3-3-3-3/8-8-8-8-8-8-8-8-10-10-10-10
E|--1-1-1-1-1-1-1-1-3-3-3-3-3-3-3-3-5-5-5-5-5-5-5-5--------------------------------------------

G|-------------------------------
D|-------------------------------
A|--10-10-10-10-----------------7
E|--------------0-0-0-0-0-0-0-0-- So be my lungs let me breath

2nd Chorus
G|---------------------------------------------------------------------------------------------
D|---------------------------------------------------------------------------------------------
A|--------------------------------------------------3-3-3-3-3-3-3-3/8-8-8-8-8-8-8-8-10-10-10-10
E|--1-1-1-1-1-1-1-1-3-3-3-3-3-3-3-3-5-5-5-5-5-5-5-5--------------------------------------------

G|---------------------------------------------
D|---------------------------------------------
A|--10-10-10-10-----------------7-----7-----7--
E|--------------0-0-0-0-0-0-0-0---0-0---0-0---0

Third Verse is the same but picked the same as the guitar

Bridge (Let each note ring out for a measure)
G|----------------------
D|--10----12----14----17
A|--8-----10----12----15
E|----------------------
Guitar Tab Creator is intended to store guitar tab created through the tool. It currently does not support in-line text editing. Any text you place in here will be lost. If you need to comment on your tab, please use the "Tab Notes" section located below.