Senior Year

(/) Slide Up  (\) Slide Down  (h) Hammer On  (p) Pull Off  (b) Bend (r) Release (v) Vibrato

Senior Year

Verse and Chorus
G|----------------------7
D|-----------------------
A|-------------3---5r-6--
E|--3---5r-6-------------

Pre-Chorus 2x
G|-------------------------5r-5r-----7r-7r
D|---5r-5r------7r-7r---------------------
A|--------------------0h3-------0h5-------
E|3--------0h5----------------------------
Guitar Tab Creator is intended to store guitar tab created through the tool. It currently does not support in-line text editing. Any text you place in here will be lost. If you need to comment on your tab, please use the "Tab Notes" section located below.