I Wrote the Damn Thing

(/) Slide Up  (\) Slide Down  (h) Hammer On  (p) Pull Off  (b) Bend (r) Release (v) Vibrato

Wrote The damn Thing

Intro/Verse
G|------------------------------------------------------------------------------
D|------------------------------------------------------------------------------
A|-----------6h7p6---------------------------------6h7p6------------------------
E|-5-0-5-5-5-------7-0-0-0-0-0-0-0-2-2-4-4-5-0-5-5-5-----7-0-0-0-0-0-0-0-2-2-4-4

Chorus
G|------------------------------------------------------
D|------------------------------------------------------
A|---------------2-2-2-2-2-2-2-2/7-7-7-7-6-6-6-6-4-4-4-4
E|-2-2-2-2-2-2-2----------------------------------------

Bridge (2nd half of bridge is the same as chorus)
G|----------------------------------
D|----------------------------------
A|--7---6---4-------7---6---4-------
E|----------------------------------

Guitar Tab Creator is intended to store guitar tab created through the tool. It currently does not support in-line text editing. Any text you place in here will be lost. If you need to comment on your tab, please use the "Tab Notes" section located below.