FTS

(/) Slide Up  (\) Slide Down  (h) Hammer On  (p) Pull Off  (b) Bend (r) Release (v) Vibrato

FTS

Intro/Verse/Breakdown: Slide from 12th fret in the intro (No slide in verse or breakdown)

G|-------------------------------------------------------------------
D|-------------------------------------------------------------------
A|---------------------8-8-8-8-8-8--------------------8-8-8-8-8-8----
E|--12\8-8-8-8-8-8-6-6------------9-9-8-8-8-8-8-8-6-6-------------9-9

Chorus
G|---------------------------------------------------------------------
D|---------------------------------------------------------------888888
A|---------------------------------------------------------------------
E|--12\3-3-3-3-3-3-3-3/6-6-6-6-6-6-6-6\3-3-3-3-3-3-3-3/6-6-6-6-6-------

G|---------------------------------------------------------------
D|---------------------------------------------------------------
A|---------------------------------------------------------------
E|--3-3-3-3-3-3-3-3/6-6-6-6-6-6-6-6\3-3-3-3-3-3-3-3/6-6-6-6-6-6-6
Guitar Tab Creator is intended to store guitar tab created through the tool. It currently does not support in-line text editing. Any text you place in here will be lost. If you need to comment on your tab, please use the "Tab Notes" section located below.