Myles Stefan-Bei Maejor

(/) Slide Up  (\) Slide Down  (h) Hammer On  (p) Pull Off  (b) Bend (r) Release (v) Vibrato


E|-----------------------------------------------------------4-------------------
B|---------------------------------4--7/9v--9\7p4--------------------------------
G|-------------4\3-----4-----6---------------------7\6p4-----4h6/7\6p4-----------
D|-------4--6-------6-----6-----6-------------------------7-------------6--6/9v--
A|--4/6--------------------------------------------------------------------------
E|-------------------------------------------------------------------------------



E|------------------------------------------
B|------------------------------------------
G|--6p4-----4-------------------------------
D|-------6-----6p4--6p4-----4---------------
A|-----------------------6-----6\4/5\4--2v--
E|------------------------------------------



E|---------------------------------------------------
B|----------------------7-----4----------------------
G|-------------------4-----6-----7\6/7\6--4----------
D|-------------4--6--------------------------6--6p4--
A|-----2--4/6----------------------------------------
E|--4------------------------------------------------



E|--------------------------16--------------------------------------------------------------
B|------------------16--19------19--17--16--------------------------------------------------
G|--16--16--16--18--------------------------18--16--15--15--15--16--18--16------------------
D|--------------------------------------------------------------------------18--18--16------
A|--------------------------------------------------------------------------------------18--
E|------------------------------------------------------------------------------------------



E|--------------------------16----------------------------------------------------------------
B|------------------16--19------19--17--16h17p16----------------------------------------------
G|--16--16--16--18--------------------------------18--16--15--15--15--16--18--16--------------
D|--------------------------------------------------------------------------------18--16------
A|----------------------------------------------------------------------------------------18--
E|--------------------------------------------------------------------------------------------



E|--
B|--
G|--
D|--
A|--
E|--
http://www.guitartabcreator.com
Guitar Tab Creator is intended to store guitar tab created through the tool. It currently does not support in-line text editing. Any text you place in here will be lost. If you need to comment on your tab, please use the "Tab Notes" section located below.