Grateful Dead-Casey Jones solo

(/) Slide Up  (\) Slide Down  (h) Hammer On  (p) Pull Off  (b) Bend (r) Release (v) Vibrato


E|-------------------------------------------------------------------------------
B|--13--15--15b17r16b17--13--12-------------------------------15-----------------
G|-------------------------------14--12b14--14b12--10--12b14------14b12--10--9v--
D|-------------------------------------------------------------------------------
A|-------------------------------------------------------------------------------
E|-------------------------------------------------------------------------------



E|----------------------------------------------------------------
B|--13--15--15b17r16b17--13--12-------------13--------------------
G|-------------------------------14--12b14------14r12--10--12b14--
D|----------------------------------------------------------------
A|----------------------------------------------------------------
E|----------------------------------------------------------------
http://www.guitartabcreator.com
Guitar Tab Creator is intended to store guitar tab created through the tool. It currently does not support in-line text editing. Any text you place in here will be lost. If you need to comment on your tab, please use the "Tab Notes" section located below.