Song of The Angels

(/) Slide Up  (\) Slide Down  (h) Hammer On  (p) Pull Off  (b) Bend (r) Release (v) Vibrato
E|-----------0----------------0------------------0----------------------------
B|--3-----3----------1-----1----------0-----0h1-------------------------------
G|--2----------------2----------------2------------------2--------------------
D|--0--0----------0--0--0----------0--0--0------------0--2--------------------
A|-------------------------------------------------------0--------------------
E|----------------------------------------------------------------------------



E|------------------------------------------------------------------------------------------
B|--3/6---------6--------6-----------6--------9p6--6--------6-----------6--------9p6--6-----
G|---------8----8-----8-----------8----------------8-----8-----------8----------------8-----
D|--------------8--8-----------8-----------8----------8-----------8-----------8-------------
A|------------------------------------------------------------------------------------------
E|--------------0-----------0-----------0----------0-----------0-----------0----------0-----



E|-------------------------------------8--------------0------------------------
B|--------6-----------6--------9p6--6-------3----1----1------------------------
G|-----8-----------8----------------8-------4----2-------------2------------2--
D|--8-----------8-----------8---------------5----3----------2-----2---------2--
A|----------------------------------------------------0--0-----------0------0--
E|-----------0-----------0----------0-------0----------------------------------



E|--3--------3p0--0----------------------------------------------------------------
B|--1-----1-------1-----1-----0--------0h1--0--------------------------------------
G|--2--2----------------2-----0-----0-------0--------0--2--------2--0--------------
D|--3----------------2-----2--0--0-------------0--0--------3--3--------3--2--------
A|----------------0-------------------------------------------------------2--2--2--
E|----------------------------3-------------3-----------1-----------0-----0-----0--



E|-----------------------------------------------0--
B|--0--3--------3p1--1-------------------0h1--0-----
G|-----2-----2-------2-----0----2-----2-------------
D|--------3-------------2----------2----------------
A|-----0-------------0------------------------------
E|------------------------------0-------------------



E|--3--------3p0--0------------------------------------------
B|--1-----1-------1-----1-----0--------0h1--0----------------
G|--2--2----------------2-----0-----0-------0--------0h2-----
D|--3----------------2-----2--0--0-------------0--0----------
A|----------------0------------------------------------------
E|----------------------------3-------------3----------------



E|----------------------------------------------------------------------------0--
B|-----------3-----------3-----------3-----------3-----------1-----------0h1-----
G|--2-----2-----------2-----------2-----------2-----------2-----------2----------
D|-----3-----------3-----------3-----------3-----------2-----------2-------------
A|--------------------------------------------------0-----------0----------------
E|--1-----------1-----------0-----------0----------------------------------------



E|--3--------0--------0-----------0--------0-----------0--------0--
B|--1-----1--------1-----3-----3--------1-----1-----1--------0-----
G|--2-----2--------2-----2-----2--------2-----2-----2--------2-----
D|--3--3--------3--------3--3--------3--------2--2--------2--------
A|-----------------------0-----------------------------------------
E|--------------------------------------------0--------------------



E|------------------------------------------------0--
B|--0---------------------------------------------0--
G|--0--0-----0h2--2-----------0-------------------0--
D|--0-----2----------3--3--3-----3\5/2--2------------
A|--------------------------------------2--2---------
E|--3-------------1-----------0---------0------------



E|--
B|--
G|--
D|--
A|--
E|--
http://www.guitartabcreator.com
Guitar Tab Creator is intended to store guitar tab created through the tool. It currently does not support in-line text editing. Any text you place in here will be lost. If you need to comment on your tab, please use the "Tab Notes" section located below.