God's Eternal Glory

(/) Slide Up  (\) Slide Down  (h) Hammer On  (p) Pull Off  (b) Bend (r) Release (v) Vibrato


E|---------------------------------------------------------------------------------
B|-1---------1---------0---------0---------1---------1-------0-------0-------0-----
G|-2---------2---------0---------0---------2---------2-------0-------0-------0-----
D|-2-------------------0-------------------3-----------------0---------------------
A|-0-0-0-0-0-0-0-0-0-0-------------------------------------------------------------
E|---------------------3-3-3-3-3-3-3-3-3-3-1-1-1-1-1-1-1-1-1-3---3-------3-------3-



E|-0-------0-0----0----|-0-------0-0----0----|-1-------1-1----1h3-1--|---
B|-1---------1----1----|-0---------0----0----|-1---------1----1------|---
G|-0----0--------------|-0----0--------------|-2----2----------------|---
D|----2---------2---2--|----0---------0---0--|----3---------3--------|---
A|-3---------3---------|---------------------|-----------------------|---
E|---------------------|-3---------3---------|-1---------1-----------|---



E|-----------------------|-----
B|-3-------3-3----3p1-0--|-----
G|-0---------0----0------|-----
D|------0----------------|-----
A|----2---------2--------|-----
E|-3---------3-----------|-----
http://www.guitartabcreator.com
Guitar Tab Creator is intended to store guitar tab created through the tool. It currently does not support in-line text editing. Any text you place in here will be lost. If you need to comment on your tab, please use the "Tab Notes" section located below.