The Gates Of Darkness

(/) Slide Up  (\) Slide Down  (h) Hammer On  (p) Pull Off  (b) Bend (r) Release (v) Vibrato

Stave 1:

E|----------------------------------------------------
B|----------------------------------------------------
G|----------------------------------------------------
D|----------------------------------------------------
A|--7--8--7--8--7--8--10--9--7--8--7--8--7--8--10--9--
E|----------------------------------------------------

Stave 2:

E|-----------------------------------------------------------------------------
B|-----------------------------------------------------------------------------
G|-----------------------------------------------------------------------------
D|-----------------------------------------------9--9--9--10--10--10-----------
A|--7--7--7--8--8--8--7--7--7--8--8--8--7--7--7-----------------------9--9--9--
E|-----------------------------------------------------------------------------

Stave 3:

E|-----------------------------------------------------------------------------
B|-----------------------------------------------------------------------------
G|-----------------------------------------------------------------------------
D|-----------------------------------------------------------------------------
A|--7--7--7--8--8--8--7--7--7--8--8--8--7--7--7--8--8--8--10--10--10--9--9--9--
E|-----------------------------------------------------------------------------

http://www.guitartabcreator.com
Guitar Tab Creator is intended to store guitar tab created through the tool. It currently does not support in-line text editing. Any text you place in here will be lost. If you need to comment on your tab, please use the "Tab Notes" section located below.