Like You

(/) Slide Up  (\) Slide Down  (h) Hammer On  (p) Pull Off  (b) Bend (r) Release (v) Vibrato

Stave 1:

E|------------------------------------------------------------------------
B|------------------------------------------------------------------------
G|------------------------------------------------------------------------
D|------------------------------------------------------------------------
A|------------------------------------------------------------------------
E|-2-2-2-5-0-2-2-2-5-0-2-2-2-5-2-2-3--2-2-2-5-0-2-2-2-5-0-2-2-2-5-0-7-7-5-

Stave 2:

E|--------------------------------------------------------------------
B|--------------------------------------------------------------------
G|--------------------------------------------------------------------
D|--------------------------------------------------------------------
A|-------------------0-0-0-0--------------------------0-0-0-0---------
E|-2-2-2-2-5-5-5-5-5---------2-2-2-2--2-2-2-2-5-5-5-5---------2-2-2-2-

Stave 3:

E|------------------------------------------------------------------------
B|------------------------------------------------------------------------
G|------------------------------------------------------------------------
D|------------------------------------------------------------------------
A|------------------------------------------------------------------------
E|-2-2-2-2-2-2-2-3-2-2-2-2-2-2-2-7-5--2-2-2-2-2-2-2-2-2-3-2-2-2-2-2-2-7-5-

http://www.guitartabcreator.com
Guitar Tab Creator is intended to store guitar tab created through the tool. It currently does not support in-line text editing. Any text you place in here will be lost. If you need to comment on your tab, please use the "Tab Notes" section located below.