Before I Die

(/) Slide Up  (\) Slide Down  (h) Hammer On  (p) Pull Off  (b) Bend (r) Release (v) Vibrato

Stave 1:

E|--------------------------------------------------------------------------------
B|--------------------------------------------------------------------------------
G|--------------------------------------------------------------------------------
D|--------------------------------------------------------------------------------
A|--------------------------------------------------------------------------------
E|--0--5/7--0--5/7/3--0--5/7--8p7--8p7--3----5/7--0--5/7/3--0--5/7--8p7--8p7/5/3--

Stave 2:

E|--------------------------------------------------------------------------------------------------
B|--------------------------------------------------------------------------------------------------
G|--------------------------------------------------------------------------------------------------
D|--------------------------------------------------------------------------------------------------
A|--5-------3-------5-------3-------5-------3-------5-------3-------5-------3-------5-------3-------
E|-----0h5-----0h3-----0h5-----0h3-----0h5-----0h3-----0h5-----0h3-----0h5-----0h3-----0h5-----0h3--

Stave 3:

E|-----------------------------------------------------------------------------
B|-----------------------------------------------------------------------------
G|-----------------------------------------------------------------------------
D|-----------------------------------------------------------------------------
A|-----7--7-----3--3-----7--7--8\7\3-------7--7-----3--3-----7--7--8\7--8\7\3--
E|--5--------5--------5-----------------5--------5--------5--------------------

Stave 4:

E|--------------------------------------------------------------------------------------------------
B|--------------------------------------------------------------------------------------------------
G|--------------------------------------------------------------------------------------------------
D|--------------------------------------------------------------------------------------------------
A|--3--3--3--3--------------3--3--3--3--------------3--3--3--3--------------3--3--3--3--------------
E|--------------2--2--2--2--------------2--2--2--2--------------2--2--2--2--------------2--2--2--2--

http://www.guitartabcreator.com
Guitar Tab Creator is intended to store guitar tab created through the tool. It currently does not support in-line text editing. Any text you place in here will be lost. If you need to comment on your tab, please use the "Tab Notes" section located below.