All My Fountains

(/) Slide Up  (\) Slide Down  (h) Hammer On  (p) Pull Off  (b) Bend (r) Release (v) Vibrato

Stave 1:

E|----------------------7--------------------------10--9--10------
B|-----10--7--------10-----10-----10--7--------10-------------10--
G|--7---------9--7-------------7---------9--7---------------------
D|----------------------------------------------------------------
A|----------------------------------------------------------------
E|----------------------------------------------------------------

Stave 2:

E|--------------------------14------------------------------17--16--17------
B|------17--14----------17------17------17--14----------17--------------17--
G|--14----------16--14--------------14----------16--14----------------------
D|--------------------------------------------------------------------------
A|--------------------------------------------------------------------------
E|--------------------------------------------------------------------------

http://www.guitartabcreator.com
Guitar Tab Creator is intended to store guitar tab created through the tool. It currently does not support in-line text editing. Any text you place in here will be lost. If you need to comment on your tab, please use the "Tab Notes" section located below.