Brad Paisley- "Sleepin' On The Foldout" Solo

(/) Slide Up  (\) Slide Down  (h) Hammer On  (p) Pull Off  (b) Bend (r) Release (v) Vibrato
E|---------12----------14----------15----------
B|---------------------------------------------
G|--9--13------13--13------14--14------15--15--
D|---------------------------------------------
A|---------------------------------------------
E|---------------------------------------------



E|------16------------------14----------------------
B|------------------17----------16----------12------
G|--16------16--16------15----------16--14------14--
D|--------------------------------------------------
A|--------------------------------------------------
E|--------------------------------------------------



E|----------------------------------------------------------
B|--------------16--14--12------------------14--16--16--14--
G|------13--16--------------13----------14------------------
D|--14--------------------------14--16----------------------
A|----------------------------------------------------------
E|----------------------------------------------------------



E|--------------------------------------------
B|--------------------------------------------
G|--------------------------------------------
D|--------------------------4--2--------2-----
A|-----------4--------------------2--------4--
E|--2--0--0-----0--0--0--0-----------4--------



E|-----------0--------------------------------------
B|--------------------------------------------------
G|--------2-----------6-----------------------------
D|-----------------4--------------------------------
A|--1--2--------6-----------------------------------
E|-----------------------3--5--3--0--2--2--2--2--0--
http://www.guitartabcreator.com
Guitar Tab Creator is intended to store guitar tab created through the tool. It currently does not support in-line text editing. Any text you place in here will be lost. If you need to comment on your tab, please use the "Tab Notes" section located below.