Embers - Helen Jane Long

(/) Slide Up  (\) Slide Down  (h) Hammer On  (p) Pull Off  (b) Bend (r) Release (v) Vibrato
E|------------------------------10---15-17-18--18-15--15--------------------------
B|-11-----11----------11-----11--------------------------15--18---------15--------
G|----12-----------------12--------------------------------------17--17----17-15--
D|-----------12-------------------------------------------------------------------
A|--------------------------------------------------------------------------------
E|--------------------------------------------------------------------------------



E|------------------------------10---15-17-18--18-15--15--------------------------
B|-11-----11----------11-----11--------------------------15--18---------15--------
G|----12-----------------12-------------------------------------17---17----17--15-
D|-----------12-------------------------------------------------------------------
A|--------------------------------------------------------------------------------
E|--------------------------------------------------------------------------------



E|------------
B|----15------
G|-17------15-
D|------------
A|------------
E|------------



E|-17-18--18-21---------------------------
B|-------------------18---------15--------
G|----------------19----17---17----17--15-
D|----------------------------------------
A|----------------------------------------
E|----------------------------------------



E|-17-18--18-21---------------------------
B|-------------------18---------15--------
G|----------------19----17---17----17--15-
D|----------------------------------------
A|----------------------------------------
E|----------------------------------------



E|-----------------------------------------------
B|--------------------------------------------15-
G|-15-15-15-15--------------15-15-15-15----------
D|-------------17-17--------------------17-17----
A|-------------------17--------------------------
E|-----------------------------------------------



E|----------------------------------------------------------
B|----------------------------------------------------------
G|-15-15-15-15-------15-----19-19-19-----17-17-17--15-15-15-
D|-------------15-17----15-----------15---------------------
A|----------------------------------------------------------
E|----------------------------------------------------------
http://www.guitartabcreator.com
Guitar Tab Creator is intended to store guitar tab created through the tool. It currently does not support in-line text editing. Any text you place in here will be lost. If you need to comment on your tab, please use the "Tab Notes" section located below.