Fur Elise

(/) Slide Up  (\) Slide Down  (h) Hammer On  (p) Pull Off  (b) Bend (r) Release (v) Vibrato

E|--12--11--12--11--12--7--10--8--5--------5--7--------7--8--
B|--------------------------------------5-----------9--------
G|-----------------------------------5-----------9-----------
D|-----------------------------------------------------------
A|-----------------------------------------------------------
E|-----------------------------------------------------------



E|--0--12--11--12--11--12--7--10--8--5--------5--7-----8--7--5-----
B|-----------------------------------------5-----------------------
G|--------------------------------------5-----------9--------------
D|-----------------------------------------------------------------
A|-----------------------------------------------------------------
E|-----------------------------------------------------------------



E|--7--8--10--12------13--12--10------12--10--8-----10--8--7--0--0--12--
B|----------------------------------------------------------------------
G|----------------12--------------10-------------9----------------------
D|----------------------------------------------------------------------
A|----------------------------------------------------------------------
E|----------------------------------------------------------------------



E|--0--12--0--12--11--12--11--12--7--10--8--5--
B|---------------------------------------------
G|---------------------------------------------
D|---------------------------------------------
A|---------------------------------------------
E|---------------------------------------------
http://www.guitartabcreator.com
Guitar Tab Creator is intended to store guitar tab created through the tool. It currently does not support in-line text editing. Any text you place in here will be lost. If you need to comment on your tab, please use the "Tab Notes" section located below.