FMA - Brothers

(/) Slide Up  (\) Slide Down  (h) Hammer On  (p) Pull Off  (b) Bend (r) Release (v) Vibrato


E|-----------------5--------------------------8--5-----5-----------------5-----------------------
B|-----6--5--6--8-----6--5--------6--5--6--8--------8--------6--5--6--8-----6--5-----------------
G|--7-----------------------7--7--------------------------7-----------------------7--7--5--7-----
D|-----------------------------------------------------------------------------------------------
A|-----------------------------------------------------------------------------------------------
E|-----------------------------------------------------------------------------------------------



E|--------------
B|--5--6--5-----
G|-----------7--
D|--------------
A|--------------
E|--------------
http://www.guitartabcreator.com
Guitar Tab Creator is intended to store guitar tab created through the tool. It currently does not support in-line text editing. Any text you place in here will be lost. If you need to comment on your tab, please use the "Tab Notes" section located below.