New Song

(/) Slide Up  (\) Slide Down  (h) Hammer On  (p) Pull Off  (b) Bend (r) Release (v) Vibrato


E|-----------------------------------------------------------------|-
B|-----------------------------------------------------------------|-
G|-----------------------------------------------------------------|-
D|-----------------------------------------------------------6-7---|-
A|-------------7-9-7-----5-----4---------------7-9-7-----5---------|-
E|-5-5-5-5-5-5-------------------4-5-5-5-5-5-5-------------------4-|-



E|-----------------------------------------------------------------------
B|-----------------------------------------------------------------------
G|-----------------------------------------------------------------------
D|-------------------------------------------------------------------7---
A|-----------------------------------9---------------------------7-------
E|-7-7-7-7-7-7-7-9-10-10-10-10-10-10-----2-2-2-2-2-2-2-4-5-5-5-5---5---5-



E|--------------------------------------------------------------
B|--------------------------------------------------------------
G|--------------------------------------------------------------
D|--------------------------------------------------------------
A|----------------------------------7---------------------------
E|-7-------------7-10-------------7---------------7-0-----2-----
http://www.guitartabcreator.com
Guitar Tab Creator is intended to store guitar tab created through the tool. It currently does not support in-line text editing. Any text you place in here will be lost. If you need to comment on your tab, please use the "Tab Notes" section located below.